Deftones - Korea Chords & Tabs

 

Korea Chords & Tabs

Deftones Chords & Tabs

Version: 1 Type: Tab 0 ratings
1 star 2 stars 3 stars 4 stars 5 stars
comments

Korea Tab

   
Korea-Deftones
White Pony

Drop C
C G C F A D

d--------------------------------------------------
a--------------------------------------------------
f-4---4-4--3-4-4-4--6-4-6-4--4-4--3-4-4-4-6-4-6----
c--------------------------------------------------
g-6---6-6--5-6-6-6--5-5-5-6--6-6--5-6-6-6-5-5-5----
c--------------------------------------------------

Fig 1.
x3
d--------------------------------------------------------
a--------------------------------------------------------
f--------6--6---------6--6---------6--6--4-4-4-4-4-4-4-4-
c--------5--5---------5--5---------5--5------------------
g-0-0--0-5--5--0-0--0-5--5--0-0--0-5--5--6-6-6-6-6-6-6-6-
c-0-0--0-------0-0--0-------0-0--0-----------------------
[ Tab from: http://www.guitartabs.cc/tabs/d/deftones/korea_tab.html ]
d--------------------------------------------------------
a--------------------------------------------------------
f--------6--6--4-4-4-4-4-4-4-4-6--6----------------------
c--------5--5------------------5--5----------------------
g-0-0--0-5--5--6-6-6-6-6-6-6-6-5--5----------------------
c-0-0--0-------------------------------------------------

Verses

d--------------------------------------------------------
a--------------------------------------------------------
F-4-4-4-4-4-4-4-4-4-4-4-4-6-4-6-4-4-4-4-4-4-4-4-4-4-6-4-6
c--------------------------------------------------------
G-6-6-6-6-6-6-6-6-6-6-6-6-5-5-5-6-6-6-6-6-6-6-6-6-6-5-5-5
c--------------------------------------------------------

Chorus: Fig 1

Interlude:

d-----------------------------------------------------------------
a-----------------------------------------------------------------
F-7-7-7-7-7-7-7-7-9-9-9-9-9-9-9-9-9-7-7-7-7-7-7-7-3-3-3-3-3-3-3-3-
C-7-7-7-7-7-7-7-7-7-7-7-7-7-7-7-7-7-5-5-5-5-5-5-5-1-1-1-1-1-1-1-1-
G-5-5-5-5-5-5-5-5-7-7-7-7-7-7-7-7-7-5-5-5-5-5-5-5-1-1-1-1-1-1-1-1-
C-0-0-0-0-0-0-0-0-7-7-7-7-7-7-7-7-7-5-5-5-5-5-5-5-1-1-1-1-1-1-1-1-

Thatís all

trevor Jones
timmy91199@yahoo.ca
Comments