Deftones - Korea Chords & Tabs

 

Korea Chords & Tabs

Deftones Chords & Tabs

Version: 1 Type: Bass Tab 0 ratings
1 star 2 stars 3 stars 4 stars 5 stars
comments

Korea Bass Tab

   
Deftones
Song:  Korea
Album:  White Pony
Tabbed by:  Stephen Short (sms_stylee@yahoo.com)

Tuning is C,G,F,C

Intro-just do an open C note with a phaser effect.

Chorus Riff X4

C|-----------------------------------------------
G|-----------------------------------------------
F|-----------------------------------------------
C|-1-0--X-X--1-0--X-X--1-0--X-X--0-1-1-1-0-1-1-1-


Verse Riff 1-Play the phaser effect again until he says "off teeth taste" then play

C|-----
G|-----
F|-----
C|-1-0-


Verse Riff 2-X4
[ Tab from: http://www.guitartabs.cc/tabs/d/deftones/korea_btab.html ]
C|-------------------------------------
G|-------------------------------------
F|-5-5-5-5-5-5-5-5-5-5-5-5-------------
C|-------------------------0-9\\\\\\\\-


Chorus Riff-X2


Verse Riff 1-X1


Verse Riff 2-X4


Chorus Riff-X4


Guitar Solo-Play the phaser effect but quieter


Bridge Riff-X8

C|------------------------------------------------------------------
G|------------------------------------------------------------------
F|------------------------------------------------------------------
C|--0-0-0-0-0-0-0-0-7-7-7-7-7-7-7-7-5-5-5-5-5-5-5-5-1-1-1-1-1-1-1-1-


Chorus Riff-X4


Check out my band's site at http://syngd.20m.com

Comments