Deftones - Hexagram Chords & Tabs

 

Hexagram Chords & Tabs

Deftones Chords & Tabs

Version: 7 Type: Tab 0 ratings
1 star 2 stars 3 stars 4 stars 5 stars
comments

Hexagram Tab

   
Intro
E|-0------0----0--------------0-----0----------0-----0-|
B|-0--0---0--0---------0--0---0--0------0--0---0--0----|
G|-1----2------------4-4--------------4-4--------------|  X2
D|-2-----------------6----------------6----------------|
A|-2-----------------6----------------6----------------|
E|---------------0-0-4------4---------4------4---------|

Intro Outro
E|--------0-----0------0-|
B|----0---0-----0------0-|
G|-4--------4-----4----4-|
D|-2----2-----2-----2--2-|
A|-0----0-----0-----0--0-|
E|-----------------------|

Chorus
E|-0------0----0--------------0-----0----------0-----0-|
B|-0--0---0--0---------0--0---0--0------0--0---0--0----|
G|-1----2------------4-4--------------4-4--------------|  X4
D|-2-----------------6----------------6----------------|
A|-2-----------------6----------------6----------------|
E|-0-------------0-0-4------4---------4------4---------|
[ Tab from: http://www.guitartabs.cc/tabs/d/deftones/hexagram_tab_ver_7.html ]
Intro Outro
E|--------0-----0------0-|
B|----0---0-----0------0-|
G|-4--------4-----4----4-|
D|-2----2-----2-----2--2-|
A|-0----0-----0-----0--0-|
E|-----------------------|

Verse (Listen to the song for structer and timing)
E|------------------------------------------------------|
B|------------------------------------------------------|
G|------------------------------------------------------|
D|------------------------------------------------------|
A|-4-2-4--4-4-2-4-2-4--4-2-4--4-2-4--4-4-2-4-2-4--4-2-4-|
E|-2-0-2--2-2-0-2-0-2--2-0-2--2-0-2--2-2-0-2-0-2--2-0-2-|

Repeat the verse patern until you here this (bellow) then repeat the verse  until it comes to the Chorus.
E|----------|
B|----------|
G|----------|
D|----------|
A|-8--8-/-5-|
E|-6--6-/-5-|

Something like bellow is played to begin the second Verse.
E|-----------|
B|-----------|
G|-----------|
D|-----------|
A|-10-10-/-9-|
E|-8--8--/-7-|

I know the tuning is different from Steph's guitar. It's like C# F# B E G# C#. He also
plays it on a seven string but this is my version.
Comments