Deftones - Hexagram Chords & Tabs

 

Hexagram Chords & Tabs

Deftones Chords & Tabs

Version: 3 Type: Tab 0 ratings
1 star 2 stars 3 stars 4 stars 5 stars
comments

Hexagram Tab

   
Deftones 
hexagram
Tuning: G# C# F# B Eb G#

This is a six string tab for this song, which is played by stephen on a detuned
seven string, but this is as close as its gonna get if you don't have a 7.

strumming patterns not given, you should be able to figure it out.

intro/verse
(paint the streets in white.....)

-0-----0--0-----0-0--
-x-----5--x-----5-5--
-2-----6--2-----6-6--
-2--4--6--2--4--6-0--
-0--4--4--0--4--4----
----2--------2-------
[ Tab from: http://www.guitartabs.cc/tabs/d/deftones/hexagram_tab_ver_3.html ]
chorus 
(worship, play, play.....)

these chords are alternated between, but stay mostly on the Bb
------------0-0--0--
------------x-x--5--
------------2-2--6--
-4-4-4-4----2-2--6--
-4-4-4-4----0-0--4--
-2-3-2-2------------

chorus/prechorus riff
-------------
-------------
-------------
-------------
-------------
-8-7-3-5-10--

clean bridge part
-0-----0--0-----0-0--
-x-----5--x-----5-5--
-2-----6--2-----6-6--
-2--4--6--2-----6-0--
-0--4--4--0--5--4----
----2--------2-------

end on
-0-0--0~
-x-x--5~
-2-2--6~
-2-2--6~
-0-0--4~
--------
Comments