Deftones - Headup Chords & Tabs

 

Headup Chords & Tabs

Deftones Chords & Tabs

Version: 3 Type: Tab 0 ratings
1 star 2 stars 3 stars 4 stars 5 stars
comments

Headup Tab

Easy song to learn

Intro: After distortion

Eb-------------------------|
Bb-------------------------|
Gb-------------------------| X1
Db-------------------------|
Ab-------------------------|
Db--3--2-0-2-0-2-0-2-0-2-3-|

Riff 1: After intro
Eb-------------------------|
Bb-------------------------|
Gb-------------------------| X8
Db--3--2-0-2-0-2-0-2-0-2---|
Ab--3--2-0-2-0-2-0-2-0-2---|
Db--3--2-0-2-0-2-0-2-0-2---|

Short Part
Eb-------------------------|
Bb-------------------------|
Gb-------------------------| X4
Db-------------------------|
Ab-------------------------|
Db--3-2-0-2-0-2-0-2-0-2----|

Riff 2:
Eb-------------------------|
Bb-------------------------|
Gb-------------------------| X8
Db--3--2-0-2-0-2-0-2-0-2---|
Ab--3--2-0-2-0-2-0-2-0-2---|
Db--3--2-0-2-0-2-0-2-0-2---|

Chorus:
Eb-------------------------------------------|
Bb-------------------------------------------|
Gb-------------------------------------------| X4
Db--9-9-9-10^10-10^11-11^12-12-9-9--X-X-X-3--|
Ab--9-9-9-10^10-10^11-11^12-12-9-9--X-X-X-3--|
Db--9-9-9-10^10-10^11-11^12-12-9-9--X-X-X-3--|

Short One again....
Eb-------------------------|
Bb-------------------------|
Gb-------------------------| X2
Db-------------------------|
Ab-------------------------|
Db--3-2-0-2-0-2-0-2-0-2----|
[ Tab from: http://www.guitartabs.cc/tabs/d/deftones/headup_tab_ver_3.html ]
Riff 3:
Eb-------------------------|
Bb-------------------------|
Gb-------------------------| X8
Db--3--2-0-2-0-2-0-2-0-2---|
Ab--3--2-0-2-0-2-0-2-0-2---|
Db--3--2-0-2-0-2-0-2-0-2---|

Chorus again...:
Eb-------------------------------------------|
Bb-------------------------------------------|
Gb-------------------------------------------| X4
Db--9-9-9-10^10-10^11-11^12-12-9-9--X-X-X-3--|
Ab--9-9-9-10^10-10^11-11^12-12-9-9--X-X-X-3--|
Db--9-9-9-10^10-10^11-11^12-12-9-9--X-X-X-3--|

Break: let this one ring, and maybe 
bend it a bit, sounds ok
Eb--------------------------|
Bb--------------------------|
Gb--------------------------|
Db--3-----------------------|
Ab--3-----------------------|
Db--3-----------------------|

Heavy Riff: "When you walk into this world"
Eb--------------------------|
Bb--------------------------|
Gb--------------------------| X8
Db--2-2-2-2-2--7--3-3-3-3---|
Ab--2-2-2-2-2--7--3-3-3-3---|
Db--2-2-2-2-2--7--3-3-3-3---|

Last Riff:"Head up, head up, head up" 
Eb--------------------------|
Bb--------------------------|
Gb--------------------------| X8
Db--3--2-0-2-0-2-0-2-0-2----|
Ab--3--2-0-2-0-2-0-2-0-2----|
Db--3--2-0-2-0-2-0-2-0-2----|

End on this:
Eb--------------------------|
Bb--------------------------|
Gb--------------------------|
Db--3-----------------------|
Ab--3-----------------------|
Db--3-----------------------|
Comments