Deftones - Headup Chords & Tabs

 

Headup Chords & Tabs

Deftones Chords & Tabs

Version: 1 Type: Tab 0 ratings
1 star 2 stars 3 stars 4 stars 5 stars
comments

Headup Tab

   
#----------------------------------PLEASE NOTE---------------------------------#
#This file is the author's own work and represents their interpretation of the #
#song. You may only use this file for private study, scholarship, or research. #
#------------------------------------------------------------------------------#

From:   Matthew Wynn [MatthewWynn@compuserve.com]
Sent:   Saturday, December 13, 1997 9:23 AM

BAND:Deftones
ALBUM:Around The Fur
SONG:Headup

Tuning:- (half a step down and then "Dropped D")

1:Eb  4:Db
2:Bb  5:Ab
3:GB  6:Db

Intro:(After feedback)

Eb-------------------------|
Bb-------------------------|
Gb-------------------------| X1
Db-------------------------|
Ab-------------------------|
Db--3--2-0-2-0-2-0-2-0-2-3-|

Eb----------------------|
Bb----------------------|
Gb----------------------| X7
Db----------------------|
Ab----------------------|
Db--2-0-2-0-2-0-2-0-2-3-|


Verse 1: (straight into this from the intro)
Eb------------------------|
Bb------------------------|
Gb------------------------| X8
Db--3--2-0-2-0-2-0-2-0-2--|
Ab--3--2-0-2-0-2-0-2-0-2--|
Db--3--2-0-2-0-2-0-2-0-2--|

Interlude
Eb-----------------------|
Bb-----------------------|
Gb-----------------------| X4
Db-----------------------|
Ab-----------------------|
Db--3-2-0-2-0-2-0-2-0-2--|

Verse 2:
Eb------------------------|
Bb------------------------|
Gb------------------------| X8
Db--3--2-0-2-0-2-0-2-0-2--|
Ab--3--2-0-2-0-2-0-2-0-2--|
Db--3--2-0-2-0-2-0-2-0-2--|

Chorus:
Eb----------------------------------------|
Bb----------------------------------------|
Gb----------------------------------------| X4
Db--9-9-X-9^10-10-10^11-11^12-9-9--X-X-3--|
Ab--9-9-X-9^10-10-10^11-11^12-9-9--X-X-3--|
Db--9-9-X-9^10-10-10^11-11^12-9-9--X-X-3--|

Interlude:
Eb-----------------------|
Bb-----------------------|
Gb-----------------------| X2
Db-----------------------|
Ab-----------------------|
Db--3-2-0-2-0-2-0-2-0-2--|

Verse 3:
Eb------------------------|
Bb------------------------|
Gb------------------------| X8
Db--3--2-0-2-0-2-0-2-0-2--|
Ab--3--2-0-2-0-2-0-2-0-2--|
Db--3--2-0-2-0-2-0-2-0-2--|
[ Tab from: http://www.guitartabs.cc/tabs/d/deftones/headup_tab.html ]
Chorus:
Eb----------------------------------------|
Bb----------------------------------------|
Gb----------------------------------------| X4
Db--9-9-X-9^10-10-10^11-11^12-9-9--X-X-3--|
Ab--9-9-X-9^10-10-10^11-11^12-9-9--X-X-3--|
Db--9-9-X-9^10-10-10^11-11^12-9-9--X-X-3--|

Break:
Eb----------------|
Bb----------------|
Gb----------------|
Db--3-------------|
Ab--3-(let ring)--|
Db--3-------------|

Heavy Bridge:("walk into this world")
Eb--------------------------|
Bb--------------------------|
Gb--------------------------| X8
Db--2-2-X-2-2-/-7-\-3-3-3-3-|
Ab--2-2-X-2-2-/-7-\-3-3-3-3-|
Db--2-2-X-2-2-/-7-\-3-3-3-3-|

Outro:("Headup, Headup" etc.)
Eb------------------------|
Bb------------------------|
Gb------------------------| X8
Db--3--2-0-2-0-2-0-2-0-2--|
Ab--3--2-0-2-0-2-0-2-0-2--|
Db--3--2-0-2-0-2-0-2-0-2--|

End on this:
Eb----|
Bb----|
Gb----|
Db--3-|
Ab--3-|
Db--3-|

From there on it hangs around on this for a long time,
most people just ingnore that part (I do) but here it is
for those of you that want it.

Quiet Outro: (Drums and Clean Guitar)
Eb-------------|
Bb--0----------|
Gb----0--------|
Db---------1---| Repeat until fade out
Ab-------2-----|
Db-------------|


Lyrics:

Verse 1:
I got back out back off the forefront
I never said or got to say bye to my boy
But its often I try I think about how i'd be screaming
and the times would be bumping,
All our minds would be flowing taking care of the shit like
hey holmes what you needing
Sometimes life will be coming off whack,
And will open your eyes.

Verse 2:
As I proceed to get loose I feel you next to me
Fiending getting spacey,
With the common love of music
Think of this as the sun, and the mind as a tool.
But we could bounce back off this one,
With attitude, and some spirit,
With attitude will your spirit we'll shove it aside.

Chorus:
(Ad-libbed shouting) SOULFLY (X4)

Verse 3:
Sorry second verse not given in sleeve.

Chorus:
(Ad-libbed shouting) SOULFLY (X4)

Break:
(spoken) "When you walk into this world"

Heavy Bridge:
Walk into this world,  }
With your head up high }X8

Outro:
Headup, Headup, Headup, Headup etc.



That's pretty much all of it. If you find any mistakes or
anything please E-mail at Matthewwynn@compuserve.com.
Next i'm gonna be posting probably Lotion or Mascara,
everyone's been requesting Far Away which I know most of
but the problem is that it's covered up with a lot of effects
so it's hard to pick out the notes.


Matt
Comments