Deftones - Good Morning Beautiful Chords & Tabs

 

Good Morning Beautiful Chords & Tabs

Deftones Chords & Tabs

Version: 7 Type: Tab 0 ratings
1 star 2 stars 3 stars 4 stars 5 stars
comments

Good Morning Beautiful Tab

   
Deftones	Good Morning Beautiful
Ab-Db-Gb-Cb-Fb-Ab-Db

Intro
|-0~------0~------0~------0~-|
|-0~------0~------0~------0~-|
|----------------------------|
|-7~------7~------7~------7~-|
|-7~------7~------7~------7~-|
|-5~------5~------5~------5~-|
|----------------------------|

Couplet
|---------------------------------0~--0~--0~--0~--0~--0~--0~--0~-|
|---------------------------------0~--0~--0~--0~--0~--0~--0~--0~-|
|----------------------------------------------------------------|
|-4-4-4-4-4-4-4-4-4-4-4-4-4-4-4-4-7~--7~--7~--7~--7~--7~--7~--7~-|
|-4-4-4-4-4-4-4-4-4-4-4-4-4-4-4-4-7~--7~--7~--7~--7~--7~--7~--7~-|
|-2-2-2-2-2-2-2-2-2-2-2-2-2-2-2-2-5~--5~--5~--5~--5~--5~--5~--5~-|
|----------------------------------------------------------------|
				     \___________________________/
					   2x la dernière fois

Refrain
|---------------------------0~~-----------------------------0~~-|
|---------------------------0~~-----------------------------0~~-|
|---------------------------0~~-----------------------------0~~-|
|---------------------------2~~-----------------------------2~~-|
|-3-3-3~------3~--3-3-3-3~--2~~---3-3-3~------3-3-3-3-3-3~--2~~-|
|-3-3-3~------3~--3-3-3-3~--0~~---3-3-3~------3-3-3-3-3-3~--0~~-|
|-1-1-1~------1~--1-1-1-1~--------1-1-1~------1-1-1-1-1-1~------|
  \___________________________/  \____________________________/
              riff 1                         riff 2
[ Tab from: http://www.guitartabs.cc/tabs/d/deftones/good_morning_beautiful_tab_ver_7.html ]
|---------------------------0~------0~------0~------0~-|
|---------------------------0~------0~------0~------0~-|
|------------------------------------------------------| riff 3
|---------------------------7~------7~------7~------7~-|
|-3-3-3~------3~--3-3-3-3~--7~------7~------7~------7~-|
|-3-3-3~------3~--3-3-3-3~--5~------5~------5~------5~-|
|-1-1-1~------1~--1-1-1-1~-----------------------------|

1er Refrain : riff 1 3x / riff 2 / riff 1 2x / riff 2 / riff 3
1er Refrain : riff 1 2x / riff 2 5x / riff 3
3e Refrain : riff 1 2x / riff 2 2x / riff 1 2x / riff 2 2x / riff 2 / riff 1 2x / riff
2 / riff 1 3x / riff 3


Pont
|-0-0-0-0-0-0-0-0-0-0-0-0-0-0-0-0-0-0-0-0-0-0-0-0-0-0-0-0-0-0-0-0-|
|-0-0-0-0-0-0-0-0-0-0-0-0-0-0-0-0-0-0-0-0-0-0-0-0-0-0-0-0-0-0-0-0-|
|-----------------------------------------------------------------|
|-5-5-5-5-5-5-5-5-5-5-5-5-5-5-5-5-9-9-9-9-9-9-9-9-9-9-9-9-9-9-9-9-|
|-5-5-5-5-5-5-5-5-5-5-5-5-5-5-5-5-9-9-9-9-9-9-9-9-9-9-9-9-9-9-9-9-|
|-3-3-3-3-3-3-3-3-3-3-3-3-3-3-3-3-7-7-7-7-7-7-7-7-7-7-7-7-7-7-7-7-|
|-----------------------------------------------------------------|

|-0-0-0-0-0-0-0-0-0-0-0-0-0-0-0-0-0-0-0-0-0-0-0-0-0-0-0-0-0~~-|
|-0-0-0-0-0-0-0-0-0-0-0-0-0-0-0-0-0-0-0-0-0-0-0-0-0-0-0-0-0~~-|
|-------------------------------------------------------------| dernière fois
|-7-7-7-7-7-7-7-7-7-7-7-7-7-7-7-7-7-7-7-7-7-7-7-7-7-7-7-7-7~~-|
|-7-7-7-7-7-7-7-7-7-7-7-7-7-7-7-7-7-7-7-7-7-7-7-7-7-7-7-7-7~~-|
|-5-5-5-5-5-5-5-5-5-5-5-5-5-5-5-5-5-5-5-5-5-5-5-5-5-5-5-5-5~~-|
|-------------------------------------------------------------|
Comments