Deftones - Good Morning Beautiful Chords & Tabs

 

Good Morning Beautiful Chords & Tabs

Deftones Chords & Tabs

Version: 4 Type: Tab 0 ratings
1 star 2 stars 3 stars 4 stars 5 stars
comments

Good Morning Beautiful Tab

Deftones 
Good morning beautiful
Tuning: AEADFB  
(u can slighty mes with the tuning a bit to make it sound perfect)  

This is tab is practically correct 
i think its the closest your gonna get to the orig
by using a six string (and not massivly detune'in it). 
you can play this along with the cd and it sounds right.
U work the strum pattern out ur self,  Enjoy.

intro/Verse
(clearish)


B-222-2~--------------
F-222-2~--------------
D-444-4~--------------
A-444-4~--6666-2222---  RPT
E-222-2~--6666-2222---
A-222-2~--6666-2222---


Chorus
[ Tab from: http://www.guitartabs.cc/tabs/d/deftones/good_morning_beautiful_tab_ver_4.html ]
B----------------------
F----------------------
D----------------------
A--0-0-0x0--x0000-77777
E--0-0-0x0--x0000------
A--0-0-0x0--x0000------

B----------------------
F----------------------
D----------------------
A--0-0-0x0--x0000-2222-
E--0-0-0x0--x0000-2222-
A--0-0-0x0--x0000-2222-

(middle bit)

( i know what your like ....)
B-----------------------------
F-----------------------------
D-----------------------------
A--7-7-7-7-7-7--11-11-11-11---  RPT this and end on   -99-9-
E--7-7-7-7-7-7--11-11-11-11---                        -99-9-
B--7-7-7-7-7-7--11-11-11-11---                        -99-9-


tAbBED bY yOuNgY 2003
Comments