Deftones - Good Morning Beautiful Chords & Tabs

 

Good Morning Beautiful Chords & Tabs

Deftones Chords & Tabs

Version: 3 Type: Tab 0 ratings
1 star 2 stars 3 stars 4 stars 5 stars
comments

Good Morning Beautiful Tab

   
-------------------------------------------------------------------------------
                       Good Morning Beautiful - Deftones
-------------------------------------------------------------------------------

Tabbed by: Someone who is sick of reading F%&%ed Up Tab
Email: DJ Emagine@cfl.rr.com

Tuning: Drop D
   (Intro and verse riff) 
e|---------------------------------------|
B|---------------------------------------|   
G|--7-7-7-7--2-2---12-12-12-12-12-12-----|
D|--7-7-7-7--2-2---12-12-12-12-12-12-----|
A|--5-5-5-5--2-2---10-10-10-10-10-10-----|
D|--5-5-5-5--2-2-2\10-10-10-10-10-10-----|   IMPORTANT!!!!!!!!    
[ Tab from: http://www.guitartabs.cc/tabs/d/deftones/good_morning_beautiful_tab_ver_3.html ]
   (Chorus riff)                            (READ THE FOLLOWING)                
e|-----------------|          
B|-----------------| [Play Chorus riff 8 times, then play the verse riff, then] 
G|-----------0-----| [Back to Chorus and then the following interlude, and] 
D|--8-8-8-8-12-----| [Then back to the chorus and end the song with the verse]
A|--8-8-8-8-12-----| [Riff]
D|-/8-8-8-8-12-----|

   (Pre Interlude)
e|------------|           
B|------------|
G|--7-7-7-7---|
D|--7-7-7-7---|
A|--5-5-5-5---|
D|--5-5-5-5---|
  (Full interlude)
e|--------------------------------------------------|  I know what you're
B|--------------------------------------------------|    like...
G|--------------------------------------------------| 
D|--3-3-3-3-3-3-3-3-3-3-3-3---7-7-7-7-7-7-7-7-7-7---|
A|--3-3-3-3-3-3-3-3-3-3-3-3---7-7-7-7-7-7-7-7-7-7---|
D|--3-3-3-3-3-3-3-3-3-3-3-3-3\7-7-7-7-7-7-7-7-7-7---| (Repeat 3 more times)
                                                      (Then Pre interlude riff)
                                                      (Read the rest on top)
                                                      (for the proper ending)

| /  slide up
| \  slide down
| h  hammer-on
| p  pull-off
| ~  vibrato
| +  harmonic
| x  Mute note
===============================================================================
Comments