Deftones - Fist Chords & Tabs

 

Fist Chords & Tabs

Deftones Chords & Tabs

Version: 2 Type: Tab 0 ratings
1 star 2 stars 3 stars 4 stars 5 stars
comments

Fist Tab

   
Deftones	Fist									    Guitare 1
E-A-D-G-B-E

1er Couplet
|-----------------------------------------------------------------|
|-------------0---------------------------------------------------|
|-0-----0-----0-----0-----0---0---------------0-------------------|
|-4-4-4-4-4-4-4-4-4-4-4-4-4-4-4-0-0-----0-----0-----0-----0---0---|
|---------------------------------3-3-3-3-3-3-3-3-3-3-3-3-3-3-3-0-|
|-----------------------------------------------------------------|

|---------------------------------------------------------------------|
|-------0-------------------------------------------------------------|
|-0-----0-----0-----0-----0---0-0-0---------------0-------------------| variante jouée la 
|-4-4-4-4-4-4-4-4-4-4-4-4-4-4-4-4-4-0-0-----0-----0-----0-----0---0---| troisième fois
|-------------------------------------3-3-3-3-3-3-3-3-3-3-3-3-3-3-3-0-|
|---------------------------------------------------------------------|

MontéE
|-----------------------------------------------------------------|
|-----------------------------------------------------------------|
|-----------------------------------------------------------------|
|-----------------------------------------------------------------|
|-2-2-2-2-2-2-2-2-2-2-2-2-2-2-2-2-2-2-2-2-2-2-2-2-2-2-2-2-2-2-2-2-|
|-0-0-0-0-0-0-0-0-0-0-0-0-0-0-0-0-0-0-0-0-0-0-0-0-0-0-0-0-0-0-0-0-|

Explosion
|-----------------------------------------------------------------|
|-----------------------------------------------------------------|
|-----------------------------------------------------------------|
|-----------------------------------------------------------------|
|-3-3-3-3-3-3-3-3-3-3-3-3-3-3-5-5-3-3-3-3-3-3-3-3-3-5-5-5-7-7-7-7-|
|-3-3-3-3-3-3-3-3-3-3-3-3-3-3-5-5-3-3-3-3-3-3-3-3-3-5-5-5-7-7-7-7-|

Seconde montée
|-----------------------------------------------------------------|
|-----------------------------------------------------------------|
|-----------------------------------------------------------------|
|-4-4-4-4-4-4-4-4-4-4-4-4-4-4-4-4-4-4-4-4-4-4-4-4-4-4-4-4-4-4-4-4-|
|-2-2-2-2-2-2-2-2-2-2-2-2-2-2-2-2-2-2-2-2-2-2-2-2-2-2-2-2-2-2-2-2-|
|-0-0-0-0-0-0-0-0-0-0-0-0-0-0-0-0-0-0-0-0-0-0-0-0-0-0-0-0-0-0-0-0-|

Nouvelle explosion
|-----------------------------------------------------------------------|
|-----------------------------------------------------------------------|
|-----------------------------------------------------------------------|
|-----------------------------------------------------------------------|
|-3-3-3-3-3-3-3-3-3-3-3-3-3-3-5-5-3-3-3-3-3-3-3-3-3-3-3-3-5-5-7-7-7~~~~-|
|-3-3-3-3-3-3-3-3-3-3-3-3-3-3-5-5-3-3-3-3-3-3-3-3-3-3-3-3-5-5-7-7-0~~~~-|

Deuxième couplet
|-----------------------------------------------------------------|
|-------------0-------------------------------0-------------------|
|-0-----0-----0-----0-----0---0---0-----0-----0-----0-----0---0---|
|-4-4-4-4-4-4-4-4-4-4-4-4-4-4-4-4-4-4-4-4-4-4-4-4-4-4-4-4-4-4-4-0-|
|-----------------------------------------------------------------|
|-----------------------------------------------------------------|

|-----------------------------------------------------------------|
|-----------------------------------------------------------------|
|-------------0-------------------------------0-------------------|
|-0-----0-----0-----0-----0---0---0-----0-----0-----0-----0---0---|
|-3-3-3-3-3-3-3-3-3-3-3-3-3-3-3-3-3-3-3-3-3-3-3-3-3-3-3-3-3-3-3-0-|
|-----------------------------------------------------------------|

Final
|-------------------------------------------------------------------------------------------------|
|-------------------------------------------------------------------------------------------------|
|-------------------------------------------------------------------------------------------------|
|-------------------------------------------------------------------------------------------------|
|-3-3-3-3-3-3-3-3-3-3-3-3-3-3-5-5-3-3-3-3-3-3-3-3-3-3-3-3-5-5-7-7-7-7-7-7-7-7-7-7-7-7-7-7-7-7-7-7-|
|-3-3-3-3-3-3-3-3-3-3-3-3-3-3-5-5-3-3-3-3-3-3-3-3-3-3-3-3-5-5-7-7-0-0-0-0-0-0-0-0-0-0-0-0-0-0-0-0-|
							\_____________________________/
											4x
[ Tab from: http://www.guitartabs.cc/tabs/d/deftones/fist_tab_ver_2.html ]
|-----------------------------------------------------------------------|
|-----------------------------------------------------------------------|
|-----------------------------------------------------------------------|
|-----------------------------------------------------------------------|
|-3-3-3-3-3-3-3-3-3-3-3-3-5-5-5-5-3-3-3-3-3-3-3-3-3-5-5-5-7-7-7-7-------|
|-3-3-3-3-3-3-3-3-3-3-3-3-5-5-5-5-3-3-3-3-3-3-3-3-3-5-5-5-7-7-7-7-0~~~~-|
                                                                  .

Deftones	Fist									    Guitare 2
E-A-D-G-B-E

Couplet
|-2-2-2-2-2-2-2-2-2-2-2-2-2-2-3~--0-0-0-0-0-0-0-0-0-0-0-0-0-0-3~-|
|-0---------------------------0~--------------------------0---0~-|
|----------------------------------------------------------------|
|----------------------------------------------------------------|
|----------------------------------------------------------------|
|----------------------------------------------------------------|

|-2-2-2-2-2-2-2-2-2-2-2-2-2-2-3-3-0-0-0-0-0-0-0-0-0-0-0-0-0-0-3~-|
|-0-----------------------0---0-0-----------------------0-0---0~-|
|----------------------------------------------------------------|
|----------------------------------------------------------------|
|----------------------------------------------------------------|
|----------------------------------------------------------------|

MontéE
|-2-2-2-2-2-2-2-2-2-2-2-2-2-2-2-2-2-2-2-2-2-2-2-2-2-2-2-2-2-2-5-5-|
|-----------------------0-0---0---5-5-5-5-5-5-5-5-5-5-5-5-0-0-0-0-|
|-----------------------------------------------------------------|
|-----------------------------------------------------------------|
|-----------------------------------------------------------------|
|-----------------------------------------------------------------|

|-2-2-2-2-2-2-2-2-2-2-2-2-2-2-2-2-2-2-2-2-2-2-2-2-2-2-2-2-0-0-0-0-|
|-------------------------0-0-0-0-5-5-5-5-5-5-5-5-5-5-5-5-0-0-0-0-|
|-----------------------------------------------------------------|
|-----------------------------------------------------------------|
|-----------------------------------------------------------------|
|-----------------------------------------------------------------|

Explosions
|-------------------------------------------------------------------------------|
|-------------------------------------------------------------------------------|
|-------------------------------------------------------------------------------|
|-------------------------------------------------------------------------------|
|-3-3-3-3-3-3-3-3-3-3-3-3-3-3-5-5-3-3-3-3-3-3-3-3-3-5-5-5-7-7-7-7-7~~~~~~~~~~~~-|
|-3-3-3-3-3-3-3-3-3-3-3-3-3-3-5-5-3-3-3-3-3-3-3-3-3-5-5-5-7-7-7-7-0~~~~~~~~~~~~-|

|-------------------------------------------------------------------------------|
|-------------------------------------------------------------------------------|
|-------------------------------------------------------------------------------|
|-------------------------------------------------------------------------------|
|-3-3-3-3-3-3-3-3-3-3-3-3-3-3-5-5-3-3-3-3-3-3-3-3-3-3-3-3-5-5-7-7-7~~~~~~~~~~~~-|
|-3-3-3-3-3-3-3-3-3-3-3-3-3-3-5-5-3-3-3-3-3-3-3-3-3-3-3-3-5-5-7-7-0~~~~~~~~~~~~-|

Second couplet
|-2-2-2-2-2-2-2-2-2-2-2-2-2-2-2-2-2-2-2-2-2-2-2-2-2-2-2-2-2-2-2-2-|
|-0-0-0-0-0-0-0-0-0-0-0-0-0-0-0-0-0-0-0-0-0-0-0-0-0-0-0-0-0-0-0-0-|
|-----------------------------------------------------------------|
|-----------------------------------------------------------------|
|-----------------------------------------------------------------|
|-----------------------------------------------------------------|

|-2-2-2-2-2-2-2-2-2-2-2-2-2-2-2-2-2-2-2-2-2-2-2-2-2-2-2-2-2-2-2-2-|
|-5-5-5-5-5-5-5-5-5-5-5-5-5-5-5-5-5-5-5-5-5-5-5-5-5-5-5-5-0-0-0---|
|-----------------------------------------------------------------|
|-----------------------------------------------------------------|
|-----------------------------------------------------------------|
|-----------------------------------------------------------------|

puis jouer ce riff jusqu'au final (montée)
|-2-2-2-2-2-2-2-2-2-2-2-2-2-2-3-3-2-2-2-2-2-2-2-2-2-2-2-2-2-2-2-3-|
|-0-0-0-0-0-0-0-0-0-0-0-0-0-0-0-0-5-5-5-5-5-5-5-5-5-5-5-5-5-0-0-0-|
|-----------------------------------------------------------------|
|-----------------------------------------------------------------|
|-----------------------------------------------------------------|
|-----------------------------------------------------------------|

|-0-0-0-0-0-0-0-0-0-0-0-0-0-0-3-3-0-0-0-0-0-0-0-0-0-0-0-0-0-0---3-|
|-----------------------------------------------------------0---0-| variante jouée la dernière
|-----------------------------------------------------------------| fois avant la montée
|-----------------------------------------------------------------|
|-----------------------------------------------------------------|
|-----------------------------------------------------------------|

Final : idem Guitare 1
Comments