Deftones - Fireal Chords & Tabs

 

Fireal Chords & Tabs

Deftones Chords & Tabs

Version: 2 Type: Tab 0 ratings
1 star 2 stars 3 stars 4 stars 5 stars
comments

Fireal Tab

   
Deftones	Fireal
E-A-D-G-B-E

Couplet
|---------------------------------------------------------------------------|
|---------3---------------3-----------3---------------3-----------3---------|
|-----3-----3---------3-----3-----3-----3---------3-----3-----3-----3-------|
|-----------------------------------------------------------------------2~~-|
|---1---------------1---1-------1---------------1---1-------1-----------2~~-|
|-3-------------3-------------0-------------0-------------3-------------0~~-|
  \_________________________/ \_________________________/ \_______________/
             riff 1                      riff 2                 outro

1er couplet : riff 1 2x / riff 2 / riff 1 3x / riff 2 / riff 1 3x / riff 2 / riff 1 3x / riff 2 / outro
2e couplet : riff 1 2x / riff 2 / riff 1 3x / riff 2 / riff 1 3x / riff 2 / outro

Refrain
|-----------------------------------------------------------------------|
|-----------------------------------------------------------------------|
|-------------0~~~--------------0~~~--------------0~~~------------------|
|-5-4-4-5-4-4-4~~~--5-4-4-5-4-4-4~~~--5-4-4-5-4-4-4~~~--5-4-4-5-3-3-3~~-|
|-5-4-4-5-4-4-4~~~--5-4-4-5-4-4-4~~~--5-4-4-5-4-4-4~~~--5-4-4-5-3-3-3~~-|
|-3-2-2-3-2-2-2~~~--3-2-2-3-2-2-2~~~--3-2-2-3-2-2-2~~~--3-2-2-3-1-1-1~~-|

|--------------------------------------------------------------------|
|--------------------------------------------------------------------|
|-------------0~~--------------0~~--------------0~~------------------| 2x au second refrain
|-5-4-4-5-4-4-4~~--5-4-4-5-4-4-4~~--5-4-4-5-4-4-4~~--5-4-4-5-3-3-3~~-|
|-5-4-4-5-4-4-4~~--5-4-4-5-4-4-4~~--5-4-4-5-4-4-4~~--5-4-4-5-3-3-3~~-|
|-3-2-2-3-2-2-2~~--3-2-2-3-2-2-2~~--3-2-2-3-2-2-2~~--3-2-2-3-1-1-1~~-|

Pont (suivi du riff 1 du final joué deux fois)
|------------------------------------------------------------|
|------------------------------0-----------------------------|
|------------------------------------------------------------|
|-8---8~--8---8-88-5-5-5-5-5-5-5-55-7---7~--5~---8--7~-777-5-|
|-6-6-6~--6---6-66-5-5-5-5-5-5-5-55-7-7-7~--3~---6--5~-----3-|
|-6---6~--6-6-6-66-3-3-3-3-3-3-3-33-5---5~--3~---6--5~-----3-|
[ Tab from: http://www.guitartabs.cc/tabs/d/deftones/fireal_tab_ver_2.html ]
|------------------------------------------------------------------------|
|------------------------------------------------------------------------|
|------------------------------------------------------------------------|
|-8-8-8-8-8~--8-8---5-5-5-5-5-5-5-55-7-7-7-77-5~--55-8--7~--7-7---5------|
|-6-6-6-6-6~--6-6---5-5-5-5-5-5-5-55-7-7-7-77-3~--33-6--5~--5-5---3--3-3-|
|-6-6-6-6-6~--6-6-0-3-3-3-3-3-3-3-33-5-5-5-55-3~--33-6--5~--5-5-0-3------|

Final : le rythme varie parfois
Jouer dans l'ordre : riff 1 2x / riff 2 2x / riff 3 2x / riff 2 2x / riff 1 2x / riff 2x
|-------------------------------------------------------------------------|
|-------------------------------------------------------------------------|
|-------------------------------------------------------------------------|  riff 1
|-8-8-8-8-8-8-8-88-5-5-5-5-5-5-5-55-7-7-7-77-5---5-5-8--7---7-7-7-5---5-5-|
|-6-6-6-6-6-6-6-66-5-5-5-5-5-5-5-55-7-7-7-77-3---3-3-6--5---5-5-5-3---3-3-|
|-6-6-6-6-6-6-6-66-3-3-3-3-3-3-3-33-5-5-5-55-3---3-3-6--5---5-5-5-3---3-3-|

|----------------------------------------------------------------------------------|
|----------------------------------------------------------------------------------|
|----------------------------------------------------------------------------------|  riff 2
|-8-8-8-8-8-8-8-88-10-10-10-10-10-10-10-1010-7-7-7-77-5---5-5-8--7---7-7-7-5---5-5-|
|-6-6-6-6-6-6-6-66--8--8--8--8--8--8--8--8-8-7-7-7-77-3---3-3-6--5---5-5-5-3---3-3-|
|-6-6-6-6-6-6-6-66--8--8--8--8--8--8--8--8-8-5-5-5-55-3---3-3-6--5---5-5-5-3---3-3-|

|----------------------------------------------------------------------------------|
|----------------------------------------------------------------------------------|
|----------------------------------------------------------------------------------|  riff 3
|-8-8-8-8-8-8-8-88-12-12-12-12-12-12-12-1212-7-7-7-77-5---5-5-8--7---7-7-7-5---5-5-|
|-6-6-6-6-6-6-6-66-10-10-10-10-10-10-10-1010-7-7-7-77-3---3-3-6--5---5-5-5-3---3-3-|
|-6-6-6-6-6-6-6-66-10-10-10-10-10-10-10-1010-5-5-5-55-3---3-3-6--5---5-5-5-3---3-3-|

Outro
|------------------------------------------------------------|
|------------------------------------------------------------|
|------------------------------------------------------------|
|-8---8---8---8---8-0-5-5-5-5-5-5-5-----7---7----5-555-8--7~-|
|-6---6---6---6---6-0-5-5-5-5-5-5-5--55-7-7-7-77-3-----6--5~-|
|-6-6-6---6---6---6-0-3---3---3---3-----5---5----3-----6--5~-|
Comments