Deftones - Feiticeira Chords & Tabs

 

Feiticeira Chords & Tabs

Deftones Chords & Tabs

Version: 2 Type: Tab 0 ratings
1 star 2 stars 3 stars 4 stars 5 stars
comments

Feiticeira Tab

   
Deftones
Feiticeira
White Pony
tabbed by kyle hayes


    E        B  C B  C
E---------------------
B---------------------
G---9-9-9-9-----------
D------------9/10-9/10   not right strumming patterns, repeat a couple times
A---7-7-7-7-----------
E------------7/8--7/8-
[ Tab from: http://www.guitartabs.cc/tabs/d/deftones/feiticeira_tab_ver_2.html ]
       Eb   B     Eb   B     
E------------------------
B------------------------
G--8-8-8-8-----8-8-8-8---
D-----------9----------9-
A--6-6-6-6-----6-6-6-6---
E-----------7----------7-


E------------
B------------
G--8--9------
D--------7---
A------------
E------------


       Eb   B     Eb   B     
E------------------------
B------------------------
G--8-8-8-8-----8-8-8-8---
D-----------9----------9-
A--6-6-6-6-----6-6-6-6---
E-----------7----------7-

repeat that part till the end of the song. Questions or comments email me at
lazyhaze69@hotmail.com
Comments