Deftones - Engine Number 9 Chords & Tabs

 

Engine Number 9 Chords & Tabs

Deftones Chords & Tabs

Version: 1 Type: Bass Tab 0 ratings
1 star 2 stars 3 stars 4 stars 5 stars
comments

Engine Number 9 Bass Tab

Artist: Deftones
Title: Engine No. 9
Album: Adrenaline
Tuning: Standard (EADG)
Tabbed By: Mark Buchner

there were just a bunch of parts that were wrong with the old one.

//=slide down

Intro:

G|------------||play this at the end of the guitar
D|------------||intro then fo right into
A|------------||riff 1
E|-12///////--||

Riff 1:

G|--------------------------------|--------------------------------||
D|--------------------------------|--------------------------------||
A|-----------------------------2--|-----------------------------0--||
E|-2-3-2-0-2-3-2-0-2-3-2-0-2-3----|-2-3-2-0-2-3-2-0-2-3-2-0-2-3----|| x2

Riff 2:
[ Tab from: http://www.guitartabs.cc/tabs/d/deftones/engine_number_9_btab.html ]
G|------------------------------------------------||
D|------------------------------------------------||
A|------------------------------------------------||
E|-2-2----2-2----2-2----2-2----6--6-6-5--5-3-5-3--|| x2

Play Riff 1 x6

Play Riff 2 x2

Rest 1 measure (just drums)

Play Riff 1 x4

Play Riff 2 x3

Bridge:

G|----------------------------||
D|----------------------------||
A|----------------------------|| x4 with distortion then
E|-2--0-2--0-2--0-2--2-5-6-0--|| x4 without

Riff 3:

G|---------------------------||
D|---------------------------||
A|---------------------------||
E|-2-3--0-2-0-2-0-2-3-5-6-0--||  x8

Interlude:

G|--------------------------||
D|--------------------------||
A|--------------------------||
E|-1-1-1-1-1-1-1-1-1-1-1-1--||   x1

Play Riff 2 x4

Then end with a

E|--2--||

That's it!

Visit my band's site at geocities.com/morphallaxis2001

Comments