Deftones - Elite Chords & Tabs

 

Elite Chords & Tabs

Deftones Chords & Tabs

Version: 1 Type: Tab 0 ratings
1 star 2 stars 3 stars 4 stars 5 stars
comments

Elite Tab

   
Elite-Deftones
White Pony

Drop C
C G C F A D

Fig 1.    When youíre ripe.....

x4
d----------------------------------------------------------------
a----------------------------------------------------------------
f----------------------------------------------------------------
c-0-2-0-2-3-2-0-2-0-2-0-2-3-2-0-2-0-2-0-2-3-2-0-2-0-3--3-0-8--8--
g-0-2-0-2-3-2-0-2-0-2-0-2-3-2-0-2-0-2-0-2-3-2-0-2-0-3--3-0-8--8--
c-0-2-0-2-3-2-0-2-0-2-0-2-3-2-0-2-0-2-0-2-3-2-0-2-0-3--3-0-8--8--

d---------0---------------0---------------0---------------0------
a---------0---------------0---------------0---------------0------
f---------0---------------0---------------0---------------0------
c-0-2-0-2-3-------0-2-0-2-3-------0-2-0-2-3-------0-2-0-2-3------
g-0-2-0-2-3-------0-2-0-2-3-------0-2-0-2-3-------0-2-0-2-3------
c-0-2-0-2-3-------0-2-0-2-3-------0-2-0-2-3-------0-2-0-2-3------

Verse 1
Fig 2.

d----------------------------------------------------------------
a----------------------------------------------------------------
f----------------------------------------------------------------
c----------------------------------------------------------------
g---------3---------------3---------------3----------------1---1-
c-0-2-0-2---2-0-2-0-2-0-2---2-0-2-0-2-0-2---2-0-2-0-3--3-0-------
[ Tab from: http://www.guitartabs.cc/tabs/d/deftones/elite_tab.html ]
d----------------------------------------------------------------
a----------------------------------------------------------------
f----------------------------------------------------------------
c----------------------------------------------------------------
g---------3---------------3---------------3----------------------
c-0-2-0-2---2-0-2-0-2-0-2---2-0-2-0-2-0-2---2-0-2-0-3----0-2-----

Bridge   ...youíre pregnant...

Fig 3.




d---------------------------------0------------0-----------------
a---------------------------------0------------0-----------------
f---------------------------------0------------0-----------------
c-5--5--5--5---5-5-5-5----0-2-0-2-3----0-2-0-2-3-----------------
g-5--5--5--5---5-5-5-5----0-2-0-2-3----0-2-0-2-3-----------------
c-5--5--5--5---5-5-5-5----0-2-0-2-3----0-2-0-2-3-----------------

Interlude:

d----------------------------------------------------------------
a----------------------------------------------------------------
f----------------------------------------------------------------
c----------------------------------------------------------------
g---------3---------------3---------------3---------------3------
c-0-2-0-2---2-0-2-0-2-0-2---2-0-2-0-2-0-2---2-0-2-0-2-0-2---2-0-2

Outro:

d----------------------------------------------------------------
a----------------------------------------------------------------
f----------------------------------------------------------------
c---------5---------------5---------------5----------------------
g---------3---------------3---------------3------------------13--
c-0-2-0-2---2-0-2-0-2-0-2---2-0-2-0-2-0-2---2-0-2-0-2-0-2----13--

d----------------------------------------------------------------
a----------------------------------------------------------------
f----------------------------------------------------------------
c---------5---------------5---------------5----------------------
g---------3---------------3---------------3---------------13-13--
c-0-2-0-2---2-0-2-0-2-0-2---2-0-2-0-2-0-2---2-0-2-0-2-0-2-13-13--

Thatís All

trevor jones
timmy91199@yahoo.ca
Comments