Deftones - Elite Chords & Tabs

 

Elite Chords & Tabs

Deftones Chords & Tabs

Version: 2 Type: Bass Tab 0 ratings
1 star 2 stars 3 stars 4 stars 5 stars
comments

Elite Bass Tab

   
Artist: Deftones
Title: Elite
Album: White Pony
Tuning: low to high: CGCF
Tab correction by: Mark Buchner(markb513@hotmail.com)

/=slide ~~~~=let ring

Play Riff 1 x4:

F|-----------------|-----------------|-----------------|----------------||
C|-----------------|-----------------|-----------------|----------------||
G|-----------------|-----------------|-----------------|----------------||
C|-0-2-0-2-3-2-0-2-|-0-2-0-2-3-2-0-2-|-0-2-0-2-3-2-0-2-|-0-3--3-3/8--8--||

Play Fill x4:

F|------------||
C|------------||
G|------------||
C|-0-2-0-2-3--||

Play Riff 2 x4:

F|-----------------|-----------------|-----------------|----------------||
C|-----------------|-----------------|-----------------|----------------||
G|---------3-------|---------3-------|---------3-------|----------------||
C|-0-2-0-2---2-0-2-|-0-2-0-2---2-0-2-|-0-2-0-2---2-0-2-|-0-3--3-3/8--8--||

Play Riff 1 x2

Play Riff 3 x4:
[ Tab from: http://www.guitartabs.cc/tabs/d/deftones/elite_btab_ver_2.html ]
F|-----------------|-----------------|------------|------------||
C|-----------------|-----------------|------------|------------||
G|-----------------|-----------------|------------|------------||
C|-5-5-5-5-5-5-5-5-|-5-5-5-5-5-5-5-5-|-0-2-0-2-3--|-0-2-0-2-3--||

Play Fill x2

Play Riff 2 x4

Play this once:

F|-------||
C|-------||
G|-------||
C|-2~~~~~||

Play Riff 1 x4

Play Riff 3 x4

Play Fill x2

Rest 8 measures then play this once:

F|-------||
C|-------||
G|-------||
C|-2~~~~~||

Play Fill x16

Play Riff 3 x4

Play Fill x14

Play End Riff x1

F|-----------------|-----------------|-----------------|--------------------|-
C|-----------------|-----------------|-----------------|--------------------|-
G|---------3-------|---------3-------|---------3-------|--------------------|-
C|-0-2-0-2---2-0-2-|-0-2-0-2---2-0-2-|-0-2-0-2---2-0-2-|-0-x---12//////////-|-

cont'd

F|-----------------|-----------------|-----------------|---------------||
C|-----------------|-----------------|-----------------|---------------||
G|---------3-------|---------3-------|---------3-------|---------------||
C|-0-2-0-2---2-0-2-|-0-2-0-2---2-0-2-|-0-2-0-2---2-0-2-|-0-x---2-------||

That's it

visit my bands site at geocities.com/morphallaxis2001
Comments