Deftones - Digital Bath Chords & Tabs

 

Digital Bath Chords & Tabs

Deftones Chords & Tabs

Version: 6 Type: Tab 0 ratings
1 star 2 stars 3 stars 4 stars 5 stars
comments

Digital Bath Tab

   
Deftones	Digital Bath									Guitare 1
C-G-C-F-A-D

Passage précédant le premier refrain
|------------------------|
|------------------------|
|------------------------|
|-2~---------------------|
|-2~------7~\-4~---------|
|-2~--------------00~-0~-|

Refrain
|-----------------------------------------------------|
|-----------------------------------------------------|
|-----------------------------------------------------|
|-0---7---7-7--7-------0---7---7-7--7--7----7----0~~~-|
|-0---4---4-4--4-------0---4---4-4--4--4----4----0~~~-|
|-0---4---4-4--4-------0---4---4-4--4--4----4----0~~~-|
 \______________/
        3x

Passage précédant le second refrain				      fill précédant le 
|---------------------------------------------------------------||-------|   final
|---------------------------------------------------------------||-------|
|---------------------------------------------------------------||-------|
|-------------------------------------2~------------------------||-2,4*~-|
|-------------------------------------2~------7~\-4~brbr~br~-5~-||-2,4*~-|
|-4~--4-0--4~---0-4~---4-0--4~---4\---2~------------------------||-2,4*~-|

Second refrain
|---------------------------------------------------------------------------------------|
|------------------------10--101010101010101010-----------------------------------------|
|---------------------------------------------------------------------------------------|
|-0---7---7-7--7-------0--8---8-8-8-8-8-8-8-8-8-0---7---7-7--7----7-0--2---2-2--2---0~~-|
|-0---4---4-4--4-------0------------------------0---4---4-4--4----4-0--2---2-2--2---0~~-|
|-0---4---4-4--4-------0------------------------0---4---4-4--4----4-0--2---2-2--2---0~~-|
 \______________/							    \_______________/
        2x									    4x

|------------------------------------------------------------------------------|
|----------------------10--10101010101010101010--------------------------------|
|------------------------------------------------------------------------------|
|-7---7-7--7----0-------8---8-8-8-8-8-8-8-8-8-8-0---7---7-7--7--7----7----0~~~-|
|-4---4-4--4----0-------------------------------0---4---4-4--4--4----4----0~~~-|
|-4---4-4--4----0-------------------------------0---4---4-4--4--4----4----0~~~-|
 \______________/
        2x

Final
|---------------------------------------------------------------------------------------|
|----------------------------------------10--10101010101010101010-----------------------|
|---------------------------------------------------------------------------------------|
|-2---2-2--2---0~~--7---7-7--7----0-------8---8-8-8-8-8-8-8-8-8-8-0---7---7-7--7----7-0-|
|-2---2-2--2---0~~--4---4-4--4----0-------------------------------0---4---4-4--4----4-0-|
|-2---2-2--2---0~~--4---4-4--4----0-------------------------------0---4---4-4--4----4-0-|
 \_______________/ \_______________/
        4x		    2x							

|-------------------------------------------------------------------------------------------------------|
|--------------------------------------------------------10--10101010101010101010-----------------------|
|-11----11-11---11--14--14--17--16----------------------------------------------------------------------|
|-----------------------------------7---7-7--7----0-------8---8-8-8-8-8-8-8-8-8-8-0---7---7-7--7----7-0-|
|--9-----9--9----9--12--12--15--14--4---4-4--4----0-------------------------------0---4---4-4--4----4-0-|
|--0-----------------0--------------4---4-4--4----0-------------------------------0---4---4-4--4----4-0-|
  \______________________________/  \_____________/
                 2x                        2x

|-----------------------------------------------------------------------------------------------------|
|-----------------------------------------------------------------------------------------------------|
|-----------------------------------14--1414141414141414141414141414141414141414141414141414-13-------|
|-2---2-2--2---0~~--7---7-7--7----0--------------------------------------------------------------0~~~-|
|-2---2-2--2---0~~--4---4-4--4----0-12--1212121212121212121212121212121212121212121212121212-11--0~~~-|
|-2---2-2--2---0~~--4---4-4--4----0--------------------------------------------------------------0~~~-|
\_______________/ \_______________/
        4x		    2x							

[ Tab from: http://www.guitartabs.cc/tabs/d/deftones/digital_bath_tab_ver_6.html ]
Deftones	Digital Bath									Guitare 2
C-G-C-F-A-D

Couplet
|------------------------------------------------------------------------------------|
|------------------------------------------------------------------------------------|
|----------------------------------------------------11---1111-11/(14)14--14--17--16-|
|-7-------7-0---7---------7-------7-0---7-----7-7------------------------------------|
|-4-------4-0---4---------4-------4-0---4-----4-4-----9----9-9—-9/(11)11--11--15--14-|
|-4-------4-0---4-----0---4-------4-0---4-----4-4--0---------------------------------|
  \___________________/
  3x au premier couplet

|-----------------------------------------------------------------------------------------------------------|
|-----------------------------------------------------------------------------------------------------------|
|---11--------14--14-/(17)17--16----------------------------------------------------------------------------|
|----------------------------------7-------7-0--0-7-----0---7-------7-0---7---------2-2b~rbr-2----2 b~rbr-2-|
|----9--------11--11-/(15)15--14---4-------4-0--0-4-----0---4-------4-0---4---------2---------2-------------|
|-0--------------------------------4-------4-0--0-4-----0---4-------4-0---4--0-4\0~-2----------2------------|

Refrain
|-----------------------------------------------------|
|-----------------------------------------------------|
|-----------------------------------------------------|
|-0---7---7-7--7-------0---7---7-7--7--7----7----0~~~-|
|-0---4---4-4--4-------0---4---4-4--4--4----4----0~~~-|
|-0---4---4-4--4-------0---4---4-4--4--4----4----0~~~-|
 \______________/
        3x

Second refrain
|------------------------------------------------------------------------------|
|------------------------------------------------------------------------------|
|--------------------------------------------9---9-9--9---11/12-11---11-9----7-|
|-0---7---7-7--7-------0---7---7-7--7---7-0------------------------------------|
|-0---4---4-4--4-------0---4---4-4--4---4-0--7---7-7--7----9/10--9----9-7----5-|
|-0---4---4-4--4-------0---4---4-4--4---4-0------------------------------------|
\______________/				 \________________________________/
       3x                                                     2x
										Pont
|------------------------------------------------|				|-----------------------|
|------------------------------------------------|				|-----------------------|
|------------------------------------------------|				|-----------------------|
|-7---7-7--7-----0-----7---7-7--7--7----7----0~~-|				|-7-------7-0---7-----0-|
|-4---4-4--4-----0-----4---4-4--4--4----4----0~~-|				|-4-------4-0---4-----0-|
|-4---4-4--4-----0-----4---4-4--4--4----4----0~~-|				|-4-------4-0---4-----0-|
  \______________/
         3x

Final
|---------------------------------------------------------------------------|
|---------------------------------------------------------------------------|
|-9---9-9--9---11/12-11---11-9----7-----------------------------------------|
|-------------------------------------7---7-7--7----0-----7---7-7--7----7-0-|
|-7---7-7--7----9/10--9----9-7----5---4---4-4--4----0-----4---4-4--4----4-0-|
|-------------------------------------4---4-4--4----0-----4---4-4--4----4-0-|
 \________________________________/   \_____________/
                 2x		               3x							

|------------------------------------------------------------------------|
|------------------------------------------------------------------------|
|-11----11-11---11--14--14--17--16---------------------------------------|
|-----------------------------------7---7-7--7----0----7---7-7--7----7-0-|
|--9-----9--9----9--12--12--15--14--4---4-4--4----0----4---4-4--4----4-0-|
|--0-----------------0--------------4---4-4--4----0----4---4-4--4----4-0-|
  \______________________________/  \_____________/
                 2x                        3x

|-------------------------------------------------------------------------------|
|-------------------------------------------------------------------------------|
|-9---9-9--9---11/12-11---11-9----7---------------------------------------------|
|-------------------------------------7---7-7--7----0-----7---7-7--7--7---7-0~~-|
|-7---7-7--7----9/10--9----9-7----5---4---4-4--4----0-----4---4-4--4--4---4-0~~-|
|-------------------------------------4---4-4--4----0-----4---4-4--4--4---4-0~~-|
 \________________________________/   \_____________/
                 2x		               3x
Comments