Deftones - Digital Bath Chords & Tabs

 

Digital Bath Chords & Tabs

Deftones Chords & Tabs

Version: 5 Type: Tab 0 ratings
1 star 2 stars 3 stars 4 stars 5 stars
comments

Digital Bath Tab

Tuning: Dropped D then whole step down (CGCFAD)


Riff 1
D|-----------------------------------|
A|-----------------------------------|
F|-----------------------------------|
C|--7-------7p0--7-------------------| 4x
G|--4-------4p0--4-------------------|
C|--4-------4p0--4-------------------|


Riff 2
D|-------------------------------------------------------------|
A|--7-------7----10-10-------13-12-----------------------------|
F|-------------------------------------------------------------|
C|--4-------4----7---7-------10--9-----------------------------|2x 
G|-------------------------------------------------------------|
C|-------------------------------------------------------------|


[ Tab from: http://www.guitartabs.cc/tabs/d/deftones/digital_bath_tab_ver_5.html ]
Riff 3
D|--------------------------------------------------------------------|
A|--------------------------------------------------------------------|
F|--------------------------------------------------------------------|2x
C|--------------------------------------------------------------------|
G|------------------9b-----7--------5---------------------------------|
C|-------4------------------------------------------------------------|


Chorus/Riff 4
repeat verse main riff but with full distortion.

Riff 5
D|------------------------------------|
A|------------------------------------|
F|------------------------------------|
C|--7-------7p0--7-------7------------| 
G|--4-------4p0--4--x2---4------------|
C|--4-------4p0--4-------4------------|
                  End on ^ 



Order:

Clean
Riff 1 x4
Riff 2 x2
Riff 1 x2
Riff 3 x2

Distortion
Riff 5 x2

Clean
Riff 1 x2
Riff 2 x2
Riff 1 x2
Riff 3 x2

Distortion
Riff 4 x2
Riff 3 x2
Riff 5 x2

Clean
Riff 1 x4
Riff 2 x2

Distortion
Riff 4 x2
Riff 2 x2
RIff 4 x2
Riff 3 x2
Riff 5 x2

 


Lyrics:


"Digital bath"

you move like I want to
to see like your eyes do
we are downstairs where
no one can see
new life break away
tonight I feel like more
tonight I
you make the water warm
you taste foreign
and I know you can see
the cord break away
cause tonight I feel like more
tonight I feel like more
tonight I feel
feel like more
you breathed
then you stopped
I breathed then dried you off
and tonight
I feel like more
tonight
Comments