Deftones - Digital Bath Chords & Tabs

 

Digital Bath Chords & Tabs

Deftones Chords & Tabs

Version: 4 Type: Bass Tab 0 ratings
1 star 2 stars 3 stars 4 stars 5 stars
comments

Digital Bath Bass Tab

   
PLEASE NOTE
This file is the author's own work and represents their interpretation of the
song. You may only use this file for private study, scholarship, or research.
This file was downloaded from www.taborama.com


                             DIGITAL BATH (Bassline)
                             As recorded by Deftones
                        (From the 2000 Album WHITE PONY)
Found this tab on taborama.com this one sound better then the other ones
Words and Music by Deftones
Arranged by Deftones
Transcribed by rxQueen aka. iskim86

Gtr I (C G C F) - '4-String Fretted Fender Bass with Tone at zero'

 Intro                   Verse
  Q=95
  N.C.
 1/4    4/4
  Gtr I
  Q      W         4x     W          W     4x
|----||------------||-||-----------|-------||
|----||o----------o||-||o----------|------o||
|----||o----------o||-||o----------|------o||
|----||------------||-||-----------|-------||


  S H    +E. Q    S Q  +E  Q     +S   Q    S H    +E. Q    E E E Q.    Q
|---------------|------------------------|---------------|-----------------|
|---------------|------------------------|---------------|---0-------------|
|---------------|---5--(5)---------------|---------------|-----0-----------|
|-0-0----(0)-0--|-0--------6b7===(6)r-6--|-0-0----(0)-0--|-0-----6----12---|


   E  H     +S  S  Q     E  H     +S  S  Q
|---------------------|---------------------|
|---------------------|---------------------|
|---------------------|---------------------|
|-12s16----(16)---12--|-12s16----(16)---12--|


   E  H     +S  S  Q     E  H     +E   Q
|---------------------|---------------------|
|---------------------|---------------------|
|---------------------|---------------------|
|-12s16----(16)---12--|-12s16----(16)-16\---|


  S Q.   Q  +Q   +S    S Q.   +Q   +S  Q
|--------------------|--------------------|
|--------------------|--------------------|
|--------------------|--------------------|
|-2-2----2--(2)--(2)-|-2-2----(2)--(2)-2--|


  S Q.   Q  +Q   +S    S Q.   +Q   +S  Q
|--------------------|--------------------|
|--------------------|--------------------|
|--------------------|--------------------|
|-2-2----2--(2)--(2)-|-2-2----(2)--(2)-0--|


 Chorus
  H.      Q    H.      Q    H.      Q    H.      Q
|------------|------------|------------|------------|
|------------|------------|------------|------------|
|------------|------------|------------|------------|
|-4-------0--|-4-------0--|-4-------0--|-4-------4--|


                         Verse
  W          +W            E  H     +S  S  Q     E  H     +S  S  Q
|----------|------------|---------------------|---------------------|
|----------|------------|---------------------|---------------------|
|----------|------------|---------------------|---------------------|
|-0--------|-(0)--------|-12s16----(16)---12--|-12s16----(16)---12--|


   E  H     +S  S  Q     E  H     +E   Q
|---------------------|--------------------|
|---------------------|--------------------|
|---------------------|--------------------|
|-12s16----(16)---12--|-12s16----(16)-16\--|


  S H    +E. Q    S Q  +E  Q     +S   Q
|---------------|------------------------|
|---------------|------------------------|
|---------------|---5--(5)---------------|
|-0-0----(0)-0--|-0--------6b7===(6)r-6--|


  S H    +E. Q    E E E Q.    Q     E  H     +S  S  Q     E  H     +S  S  Q
|---------------|----------------|---------------------|---------------------|
|---------------|---0------------|---------------------|---------------------|
|---------------|-----0----------|---------------------|---------------------|
|-0-0----(0)-0--|-0-----6----12--|-12s16----(16)---12--|-12s16----(16)---12--|


   E  H     +S  S  Q     E  H     +E   Q
|---------------------|--------------------|
|---------------------|--------------------|
|---------------------|--------------------|
|-12s16----(16)---12--|-12s16----(16)-16\--|


  S Q.   Q  +Q   +S    S Q.   Q  +S  Q
|--------------------|-------------------|
|--------------------|-------------------|
|--------------------|-------------------|
|-2-2----2--(2)--(2)-|-2-2----2--(2)-2---|


                                           Chorus
                                            Q=100
  S Q.   Q  +Q   +S    S Q.   +Q   +S  Q    H.      Q    H.      Q
|--------------------|--------------------|------------|------------|
|--------------------|--------------------|------------|------------|
|--------------------|--------------------|------------|------------|
|-2-2----2--(2)--(2)-|-2-2----(2)--(2)-0--|-4-------0--|-4-------0--|


  H.      Q    H.      Q    E. S E Q.   Q    E. S E Q.   Q
|------------|------------|----------------|----------------|
|------------|------------|----------------|----------------|
|------------|------------|----------------|----------------|
|-4-------0--|-4-------4--|-2--2-2-2----2--|-2--2-2-2----2--|

[ Tab from: http://www.guitartabs.cc/tabs/d/deftones/digital_bath_btab_ver_4.html ]
  E. S E Q.   Q    E. S E Q.   Q    H.      Q    H.      Q
|----------------|----------------|------------|------------|
|----------------|----------------|------------|------------|
|----------------|----------------|------------|------------|
|-2--2-2-2----2--|-2--2-2-2----0--|-4-------0--|-4-------0--|


                           Breakdown
                            Q=92
                            >
  H.      Q    H.      Q    W          +W
|------------|------------|----------|--------|
|------------|------------|----------|--------|
|------------|------------|----------|--------|
|-4-------0--|-4-------4--|-0--------|-(0)----|


    W          W          W          W
||-----------|----------|----------|-------||
||o----------|----------|----------|------o||
||o----------|----------|----------|------o||
||-----------|----------|----------|-------||


 Out-Chorus
  Q=105
  E. S E Q.   E  E   Q.   Q.   Q    E. S E Q.   E  E   Q.   Q.   Q
|------------------|--------------|------------------|--------------|
|------------------|--------------|------------------|--------------|
|-------------9-10-|-9----7----5--|-------------9-10-|-9----7-------|
|-2--2-2-2---------|--------------|-2--2-2-2---------|-----------0--|


  H.      Q    H.      Q    H.      Q    H.      Q
|------------|------------|------------|------------|
|------------|------------|------------|------------|
|------------|------------|------------|------------|
|-4-------0--|-4-------0--|-4-------0--|-4-------4--|


  S H    +E. Q    S Q  +E  Q     +S   Q    S H    +E. Q    E E E Q.   Q
|---------------|------------------------|---------------|----------------|
|---------------|------------------------|---------------|---0------------|
|---------------|---5--(5)---------------|---------------|-----0----------|
|-0-0----(0)-0--|-0--------6b7===(6)r-6--|-0-0----(0)-0--|-0-----6----0---|


  H.      Q    H.      Q    H.      Q    H.      Q
|------------|------------|------------|------------|
|------------|------------|------------|------------|
|------------|------------|------------|------------|
|-4-------0--|-4-------0--|-4-------0--|-4-------4--|


  E. S E Q.   E  E   Q.   Q.   Q    E. S E Q.   E  E   Q.   Q.   Q
|------------------|--------------|------------------|--------------|
|------------------|--------------|------------------|--------------|
|-------------9-10-|-9----7----5--|-------------9-10-|-9----7-------|
|-2--2-2-2---------|--------------|-2--2-2-2---------|-----------0--|


  H.      Q    H.      Q    H.      Q    H.      Q
|------------|------------|------------|------------|
|------------|------------|------------|------------|
|------------|------------|------------|------------|
|-4-------0--|-4-------0--|-4-------0--|-4-------4--|


 Outro
  W          +W           +W           +W
|----------|------------|------------|--------|
|----------|------------|------------|--------|
|----------|------------|------------|--------|
|-0--------|-(0)--------|-(0)--------|-(0)----|


  +W           +W
|------------|--------*|
|------------|--------*|
|------------|--------*|
|-(0)--------|-(0)----*|


Duration Legend
---------------
W - whole; H - half; Q - quarter; E - 8th; S - 16th; T - 32nd; X - 64th; a - acciaccatura
+ - note tied to previous; . - note dotted; .. - note double dotted
Uncapitalized letters represent notes that are staccato (1/2 duration)
Irregular groupings are notated above the duration line
Duration letters will always appear directly above the note/fret number it represents the
duration for.  Duration letters with no fret number below them represent rests.  Multi-
bar rests are notated in the form Wxn, where n is the number of bars to rest for.  Low
melody durations appear below the staff

Tablature Legend
----------------
 h   - hammer-on
 p   - pull-off
 b   - bend
 pb  - pre-bend
 r   - bend release (if no number after the r, then release immediately)
 /\  - slide into or out of (from/to "nowhere")
 s   - legato slide
 S   - shift slide
  - natural harmonic
[n]  - artificial harmonic
n(n) - tapped harmonic
 ~   - vibrato
 tr  - trill
 T   - tap
 TP  - trem. picking
 PM  - palm muting
\n/  - tremolo bar dip; n = amount to dip
 \n  - tremolo bar down
 n/  - tremolo bar up
/n\  - tremolo bar inverted dip
 =   - hold bend; also acts as connecting device for hammers/pulls
 <>  - volume swell (louder/softer)
 x   - on rhythm slash represents muted slash
 o   - on rhythm slash represents single note slash

Misc Legend
-----------
 |  - bar
||  - double bar
||o - repeat start
o|| - repeat end
*|  - double bar (ending)
 :  - bar (freetime)
 $  - Segno
 &  - Coda
Tempo markers -  = BPM(8/16=s8/s16), where s8 = swing 8ths, s16 = swing 16ths


***************************************************************************************
* Generated using Power Tab Editor by Brad Larsen - http://powertab.guitarnetwork.org *
***************************************************************************************


Downloaded from www.taborama.com

================================================================================
Comments