Deftones - Deathblow Chords & Tabs

 

Deathblow Chords & Tabs

Deftones Chords & Tabs

Version: 1 Type: Tab 0 ratings
1 star 2 stars 3 stars 4 stars 5 stars
comments

Deathblow Tab

Artist: Deftones
Album: Deftones
Song: Deathblow
Tuning: Drop D (Down Half-Step)

Tablature by: Farzan Karimi (sevendustpsu@aol.com)

                                     NOTE
                                    ----  
This file is the author's own work and represents their interpretation of the
song. You may only use this file for private study, scholarship, or research
Copyright 2003.  Please give credit where it's due.  Any questions please
email me at sevendustpsu@aol.com  
                                    ----


Probably the best song off the new self titled cd.  I'm sure the intro is
correct. The rest of the song is pretty much on the dot as well.  But as with any
tab, there is room for error.  Feel free to send in your thoughts and corrections
at sevendustpsu@aol.com.  One thing, the (x) after some of the chords in this tab
mean to continue strumming that chord to the rythm of the song.  The tab would be
way to crowded if i retyped the same chord over and over again.

Intro/Verse (Clean)

eb-----------------------------------------------------------------
Bb-----------------------------------------------------------------
Gb-----------------------------------------------------------------
Db-----------------------------------------------------------------
Ab---3p0-3---3-0-3-------------------------------8-----------------
Db-------------------3h5-2-2-2-2-5--2-2-2-2-5-2--------------------

[ Tab from: http://www.guitartabs.cc/tabs/d/deftones/deathblow_tab.html ]
Chorus
"The ropes hang    to keep us all ...    awake" 
eb-----------------------------------------------
Bb-----------------------------------------------
Gb-----------------------------------------------
Db-------0-------------------------------11------
Ab-------0--(x)--------------------------12------
Db-------0-------------------------------11------

"...  and I should        have          known"
eb-----------------------------------------------
Bb-----------------------------------------------
Gb-----------------------------------------------
Db----------0------------------------------------
Ab----------0--(x)-------------------------------
Db----------0------------------------------------

Chorus 2
"It only takes       one break"
eb-----------------------------------------------
Bb-----------------------------------------------
Gb------------5---------------2------------------
Db------------3---------------0------------------
Ab------------3--(x)----------0-(x)--------------
Db------------3---------------0------------------

" of your pose          to get off"
eb-----------------------------------------------------
Bb-----------------------------------------------------
Gb--------7--7-7-9-9-10-10-7--7-7-7--7--7--7--7--7--7--
Db--------7--7-7-7-7-7--7--9--9-9-10-10-10-10-10-10-10-
Ab--------7--7-7-7-7-7--7--7--7-7-7--7--7--7--7--7--7--
Db--------7--7-7-7-7-7--7--7--7-7-7--7--7--7--7--7--7--

" to save.... our home"
eb------------------------------------
Bb------------------------------------
Gb-5---------------2------------------
Db-3---------------0------------------
Ab-3--(x)----------0-(x)--------------
Db-3---------------0------------------

"  with you..."
eb---------------
Bb---------------
Gb------9--------
Db------7--------
Ab------7--------
Db------7--------
Comments