Deftones - Change Chords & Tabs

 

Change Chords & Tabs

Deftones Chords & Tabs

Version: 1 Type: Tab 0 ratings
1 star 2 stars 3 stars 4 stars 5 stars
comments

Change Tab

#----------------------------------PLEASE NOTE--------------------------------#
#This file is the author's own work and represents their interpretation of the#
#song. You may only use this file for private study, scholarship, or research.#
#-----------------------------------------------------------------------------#
#-- File created with Instab - http://www.pconline.com/~smcarey/instab.html --#
#-----------------------------------------------------------------------------#

Author/Artist: Deftones
Title: Change (In The House Of Flies)
Album: White Pony
Transcribed by: Justin Parker
Email: justin_durbin@hotmail.com

These are the 100% right tabs. The deftones posted them in a magazine

Tuned       CGCFAD

*= Repeat 16 times

------------------------------------------------------------------------------
------------------------------------------------------------------------------
-10-10-10-10--10-10--10-10--10-10-10-10---------------------------------------
--x--x--x--x---x--x---x--x---x--x--x--x----5-5-5--8-8-8-7-8-8-8-7-------------
--8--8--8--8---8--8---8--8---8--8--8--8----5-5-5--5-5-5-5-5-5-5-5-------------
--0--0--0--0---0--0---0--0---0--0--0--0----5-5-5--5-5-5-5-5-5-5-5---0-0-------
 Intro/Verse        Clean                                                     
[ Tab from: http://www.guitartabs.cc/tabs/d/deftones/change_tab.html ]
-----------|------------------------------------------------------------------
-----------|------------------------------------------------------------------
-----------|-5-5-5---5-5-5-5-5---5-5---7-7-7---7-7-7-7-7---7-7-7--------------
-7*--10*---|-3-3-3---3-3-3-3-3---3-3---5-5-5---5-5-5-5-5---5-5-5--------------
-7---10----|-3-3-3---3-3-3-3-3---3-3---5-5-5---5-5-5-5-5---5-5-5--------------
-5----8----|-3-3-3---3-3-3-3-3---3-3---5-5-5---5-5-5-5-5---5-5-5--------------
 Chorus        Post Chorus                                                    

------------------------------------------------------------------------------
------------------------------------------------------------------------------
------------------------------------------------------------------------------
-8-8-8-7---8-8-8-7---7--------------------------------------------------------
-------------------8---8------------------------------------------------------
-------------------------0----------------------------------------------------
 Bridge                                                                       

------------------------------------------------------------------------------
------------------------------------------------------------------------------
------------------------------------------------------------------------------
-5-5-5---3-3-3-3--------------------------------------------------------------
-5-5-5---3-3-3-3--------------------------------------------------------------
-5-5-5---3-3-3-3--------------------------------------------------------------
 Outro                                                                        


Comments