Deftones - Change In The House Of Flies Chords & Tabs

 

Change In The House Of Flies Chords & Tabs

Deftones Chords & Tabs

Version: 1 Type: Bass Tab 0 ratings
1 star 2 stars 3 stars 4 stars 5 stars
comments

Change In The House Of Flies Bass Tab

   
-----------------------------------------------------------------------------                   
                  CHANGE (IN THE HOUSE OF FLIES) - Deftones
-----------------------------------------------------------------------------

Tabbed By : KoRnKid89 
e-mail: XblytheX89@aol.com

Tuning: CGCF

  Verse:
F|-----------------------------------------------|--------------------------------|
C|-----------------------------------------------|--------------------------------|
G|-----------------------------------------------|--------------------------------|
C|--0-10h12-12-12-12p10-0---0-10-10h12-10-10-10--|--3-3-5-5-5-5-3h5--5-5-5-5-5-3--|(4x)
  
[ Tab from: http://www.guitartabs.cc/tabs/d/deftones/change_in_the_house_of_flies_btab.html ]
  Chorus (1st and 2nd):
F|-----------------------------------|--------------------------------|
C|-----------------------------------|--------------------------------|
G|-----------------------------------|--------------------------------|
C|--0-0-0-0-0-0-0-0-0-0-0-0-0-0-0-0--|--8-8-8-8-8-8-8-7--8-8-8-8-8-7--|(4x)
  
  Bridge pt. 1:
F|-----------------------------------|-----------------------------------|
C|-----------------------------------|-----------------------------------|
G|-----------------------------------|-----------------------------------|
C|--3---3-3---3-3---3-3--3--3-3-3-3--|--0-0-0-0-0-0-0-0-0-0-0-0-0-0-0-0--|
  
F|-----------------------------------|-----------------------------------|
C|-----------------------------------|-----------------------------------|
G|-----------------------------------|-----------------------------------|
C|--3-3-3-3-3-3-3-3-3-3-3-3-3-3-3-3--|--0-0-0-0-0-0-0-0-0-0-0-0-0-0-0-0--|(x3)
  
  Bridge pt. 2:
F|-------------------------------|-------------------------------|
C|-------------------------------|-------------------------------|
G|-------------------------------|-------------------------------|
C|--5----------------------------|--0----------------------------|
  
F|-------------------------------|-------------------------------|
C|-------------------------------|-------------------------------|
G|-------------------------------|-------------------------------|
C|--5----------------------------|--0----------------------------|
  
F|-------------------------------|-------------------------------|
C|-------------------------------|-------------------------------|
G|-------------------------------|-------------------------------|
C|--5-----------------------/12--|--0----------------------------|

  Chorus (3rd):
F|-----------------------------------|----------------------------------|
C|-----------------------------------|----------------------------------|
G|-----------------------------------|----------------------------------|
C|--0-0-0-0-0-0-0-0-0-0-0-0-0-0-0-0--|--5-5-5-5-5-5-5-5-5-5-5-5-5-5-5-5-|(4x)
  
  Post-Chorus:
F|-----------------------------------|--------------------------------|
C|-----------------------------------|--------------------------------|
G|-----------------------------------|--------------------------------|
C|--0-0-0-0-0-0-0-0-0-0-0-0-0-0-0-0--|--8-8-8-8-8-8-8-7--8-8-8-8-8-7--|(4x)
  
F|-----------------------------------|----------------------------------|
C|-----------------------------------|----------------------------------|
G|-----------------------------------|----------------------------------|
C|--3-3-3-3-3-3-3-3-3-3-3-3-3-3-3-3--|--0-0-0-0-0-0-0-0-0-0-0-0-0-0-0-0-|(3x)
  
F|-----------------------------------|
C|-----------------------------------|
G|-----------------------------------|
C|--3-3-3-3-3-3-3-3-3-3-3-3-3-3-3-3--|

  Outro:
F|-------------------------------|-------------------------------|
C|-------------------------------|-------------------------------|
G|-------------------------------|-------------------------------|
C|--0--0-0--0-0--0-0--0-0-0-0-0--|--5--5-5--5-5--5-5--5-5-5-5-5--|(3x)

F|-------------------------------|-------------------------------|
C|-------------------------------|-------------------------------|
G|-------------------------------|-------------------------------|
C|--0--0-0--0-0--0-0--0-0-0-0-0--|--5----5----5------------------|


| /  slide up
| \  slide down
| h  hammer-on
| p  pull-off
| ~  vibrato
| +  harmonic
| x  Mute note
=============================================================================
Comments