Deftones - Change Chords & Tabs

 

Change Chords & Tabs

Deftones Chords & Tabs

Version: 2 Type: Bass Tab 0 ratings
1 star 2 stars 3 stars 4 stars 5 stars
comments

Change Bass Tab

   
Deftones
Song:  "Change(In the House of Flies)"
Album:  White Pony
Tab correction by:  Stephen Short (sms_stylee@yahoo.com)

The old tab was off in a few places.  This version is much more accurate.

Tuning:  C,G,C,F


Verse x4
F|-------------------------------------------------------------------------
C|-------------------------------------------------------------------------
G|---------------------------------------------------------------------0---
C|--0-10-12-0-12-12-0--0-12--0-12-12-10-12-12\5-5-5--5-3-5--0-5--0-3-5---3-


Chorus x4(Second part w/ the 8's are varied live, 
	  but I don't think he does on the CD.)
F|-----------------------------------------------------------------------------------
C|-----------------------------------------------------------------------------------
G|-----------------------------------------------------------------------------------
C|--0-0-0-0-15-0-0-0-0-15-0-0-0-0-17-15-0-15\8-8-8-8-12-8-8-8-8-12-8-8-8-8-12-11-8-12


Verse x4


Chorus x4

[ Tab from: http://www.guitartabs.cc/tabs/d/deftones/change_btab_ver_2.html ]
Bridge x4
F|---------------------------------------------------------
C|---------------------------------------------------------
G|---------------------------------------------------------
C|--3--3-3-3--3-3--3-3--3-3-3--0--0-0-0--0-0--0--0-0-0-0-0-


Slow Verse
F|-------------------------------------------------------------------
C|-------------------------------------------------------------------
G|------------5--------------------5--------------------5/-----------
C|--0-------------------0---------------------0--------------------0-


Final Chorus
F|---------------------------------------------------------- X4
C|----------------------------------------------------------
G|----------------------------------------------------------
C|--0-0-0-0-0-0-0-0-0-0-0-0-0-0-5-5-5-5-5-5-5-5-5-5-5-5-5-5-

F|----------------------------------------------------------------------------------- X4
C|-----------------------------------------------------------------------------------
G|-----------------------------------------------------------------------------------
C|--0-0-0-0-15-0-0-0-0-15-0-0-0-0-17-15-0-15\8-8-8-8-12-8-8-8-8-12-8-8-8-8-12-11-8-12 


Outro  x4

F|------------------------------------------
C|------------------------------------------
G|------------------------------------------
C|--0--0--0--0--0-0-0-0--5--5--5--5--5-5-5-5
Comments