Deftones - Bored Chords & Tabs

 

Bored Chords & Tabs

Deftones Chords & Tabs

Version: 5 Type: Tab 0 ratings
1 star 2 stars 3 stars 4 stars 5 stars
comments

Bored Tab

Artist: Deftones
Song: Bored
Album: Adrenaline 1995

By Picardi Simone BeQuietAndDrive

This is the real "Bored" sound100% correct. 

Email:  spiders82@hotmail.com


Legenda:

. = Palm Mute
* = Harmonics


Tuning: EADGBe

Verse
e|---------------|
B|---------------|
G|---------------|		
D|--88887-8/7----|		
A|--66665-6/5----|
E|--66665-6/5----|
    ..... . .

Chorus
e|-----------------------------|
B|-----------------------------|
G|-----------8--8-8--7-7-7-7-7-|
D|--5-5-5-5--8--8-8--7-7-7-7-7-|
A|--5-5-5-5--6--6-6--5-5-5-5-5-|
E|--3-3-3-3--6--6-6--5-5-5-5-5-|
			

Outro
e|-----------|
B|-----------|
G|-----------|
D|--8888787--|
A|--6666565--|
E|--6666565--|
    ......
[ Tab from: http://www.guitartabs.cc/tabs/d/deftones/bored_tab_ver_5.html ]
Bridge:                 
e|---------------------------------------------|                                                        
B|---------------------------------------------|                   
G|---------------------------------------------|                        
D|--5555--5555--55--5555--5555--55--5555--555--|                     
A|--5555--5555--55--5555--5555--55--5555--555--|                            
E|--3333--3333--33--3333--3333--33--3333--333--|                                                         
                     
e|------------------3~--|
B|--0-0-0-0-0-0-0---3~--|
G|-*4*4*4*4*4*4*4--*4~--|
D|-*5*5*5*5*5*5*5---5~--|
A|----------------------|
E|----------------------|


The End
e|---------------|
B|---------------|
G|---------------|		
D|--88887-8/7----|		
A|--66665-6/5----|
E|--66665-6/5----|
    ..... . .


Song Structure:

Verse   x24

Chorus  x2

Verse   x16

Chorus  x4

Outro   x3

Verse   x17

Chorus  x4

Bridge  x1

Chorus  x8

Outro   x3

The end x1

Please Rate!!
Comments