Deftones - Bored Chords & Tabs

 

Bored Chords & Tabs

Deftones Chords & Tabs

Version: 3 Type: Tab 0 ratings
1 star 2 stars 3 stars 4 stars 5 stars
comments

Bored Tab

   
Deftones	Bored
D-A-D-G-B-e

Couplet
|-------------------------------------|
|-------------------------------------|
|-------------------------------------|
|-8-8-8-8-7--8--------8-8-8-8-7--8----|
|-6-6-6-6-5--6--------6-6-6-6-5--6----|
|-0-0-0-0-0--0~~~-----0-0-0-0-0--0~~~-|
  ............       .............

Refrain
|-----------------------------------------|
|-----------------------------------------|
|-7~~~-7~~~-8~~~-8~~~-7~~~-7~~~-7~~~-7~~~-|
|-5~~~-5~~~-8~~~-8~~~-7~~~-7~~~-7~~~-7~~~-|
|-5~~~-5~~~-6~~~-6~~~-5~~~-5~~~-5~~~-5~~~-|
|-5~~~-5~~~-------------------------------|
[ Tab from: http://www.guitartabs.cc/tabs/d/deftones/bored_tab_ver_3.html ]
Thème heurté
|------------------------------------|
|------------------------------------|
|------------------------------------|
|-8-8-8-8-7--8--7----8-8-8-8-7--8--7-|
|-6-6-6-6-5--6--5----6-6-6-6-5--6--5-|
|-0-0-0-0-0--0--0----0-0-0-0-0--0—-0-|
  ............       ............

Passage Heavy
|---------------------------------------------------------------|
|---------------------------------------------------------------|
|-----------------------------------------------7-7-7-7-7-7~~~~-|
|-5-5-5-5---5-5-5-5---5-5-------5-5-5-5---5-5-5-8-8-8-8-8-8~~~~-|
|-5-5-5-5---5-5-5-5---5-5-------5-5-5-5---5-5-5-----------------|
|-5-5-5-5---5-5-5-5---5-5-------5-5-5-5---5-5-5-----------------|
                                \______________________________/
                                          dernière fois
Comments