Deftones - Bored Chords & Tabs

 

Bored Chords & Tabs

Deftones Chords & Tabs

Version: 1 Type: Bass Tab 1 rating
1 star 2 stars 3 stars 4 stars 5 stars
comments

Bored Bass Tab

   
Deftones
Song:  Bored
Album:  Adrenaline
Tab correction by:  Stephen Short (sms_stylee@yahoo.com)

The old tab was basically right except it was a 1/2 step off in some parts.

Standard tuning

Intro: No Bass


Short Chorus Riff after Intro:

G|--------------------------------------------------------------------------------------
D|--------------------------------------------------------------------------------------
A|-----------6--6-6--6--5--5--5-5--5-5-5-5-----------6--6-6--6--5-5-5--5--5--5-5-5--5-5-
E|-3--3-3--3-------------------------------3--3-3--3------------------------------------


Verse Riff: X16

G|---------------
D|---------------
A|---------------
E|-1-1-1-1-0h1p0-


Chorus:

G|--------------------------------------------------------------------------------------
D|--------------------------------------------------------------------------------------
A|-----------6--6-6--6--5--5--5-5--5-5-5-5-----------6--6-6--6--5-5-5--5--5--5-5-5--5-5-
E|-3--3-3--3-------------------------------3--3-3--3------------------------------------
[ Tab from: http://www.guitartabs.cc/tabs/d/deftones/bored_btab.html ]
G|--------------------------------------------------------------------------------------
D|--------------------------------------------------------------------------------------
A|-----------6--6-6--6--5-5-5--5--5--5-5-5--5-5-----------6--6-6--6--5--5--5-5--5-5-5-5-
E|-3--3-3--3------------------------------------3--3-3--3-------------------------------


Fill: X4

G|-------------
D|-------------
A|-------------
E|-1-1-1-1-0-1-


Bridge:

G|---------------------------------------------------------------------------------------
D|---------------------------------------------------------------------------------------
A|---------------------------------------------------------------------------------------
E|-3-3-3-3--3-3-3-3--3-3--3-3-3-3--3-3-3-3--3-3--3-3-3-3--3-3-3-3--3-3--3-3-3-3--3-3-3-3-


Slow Verse Riff: X4

G|------------
D|------------
A|-----6~~5~~-
E|-3~~/-------


Song Structure:

Intro:  Rest
Short Chorus:  X1
Verse Riff:  X16
Chorus:  X1
Fill:  X4
Verse Riff:  X16
Chorus:  X1
Bridge:  X1
Slow Verse Riff:  X4
Chorus:  X2
Fill:  X4


Check out my band's site at http://syngd.20m.com

Comments