Deftones - Bloody Cape Chords & Tabs

 

Bloody Cape Chords & Tabs

Deftones Chords & Tabs

Version: 3 Type: Tab 0 ratings
1 star 2 stars 3 stars 4 stars 5 stars
comments

Bloody Cape Tab

Hello,  this song is done with a 7-string guitar, and I am preety sure that
it is 100% Correct and I think its 100% better than the other tabs,  well here it is 
--------------------------------------------------------------------------
                       Bloody Cape by Deftones 
--------------------------------------------------------------------------
Tabbed by: NightFire99
Email: tyler__9@hotmail.com

h- hammer on 

Tuning: Drop A , down 1 1/2 steps:


Verse1:
C|----0----0--0-----0--0-----0--0--0--0----0--0----
G|----0----0--0-----0--0-----0--0--0--0----0--0----
E|----7----7--7-----7--7-----7--7--7--7----7--7----
B|-------------------------------------------------
F|----5----5--5-----5--5-----5--5--5--5----5--5----
C|----7----7--7-----7--7-----7--7--7--7----7--7----
F|-------------------------------------------------

C|----0----0--0-----0--0-----0--0--0--0----0-------
G|----0----0--0-----0--0-----0--0--0--0----0-------
E|----7----7--7-----7--7-----7--7--7--7----7\------
B|-------------------------------------------------
F|----5----5--5-----5--5-----5--5--5--5----5\------
C|----7----7--7-----7--7-----7--7--7--7----7\------
F|-------------------------------------------------

C|----0----0--0-----0--0-----0--0--0--0----0-------
G|----3----3--3-----3--3-----3--3--3--3----3-------
E|----3----3--3-----3--3-----3--3--3--3----3-------
B|----0----0--0-----0--0-----0--0--0--0----0-------
F|-------------------------------------------------
C|----3----3--3-----3--3-----3--3--3--3----3-------
F|-------------------------------------------------

C|----0----0--0-----0--0-----0--0--0--0------------
G|----3----3--3-----3--3-----3--3--3--3------------
E|----3----3--3-----3--3-----3--3--3--3------------
B|----0----0--0-----0--0-----0--0--0--0------------
F|-------------------------------------------------
C|----3----3--3-----3--3-----3--3--3--3------------
F|-------------------------------------------------


Verse2: 
C|----0----0--0-----0--0-----0--0--0--0----0--0----
G|----0----0--0-----0--0-----0--0--0--0----0--0----
E|----7----7--7-----7--7-----7--7--7--7----7--7----
B|-------------------------------------------------
F|----5----5--5-----5--5-----5--5--5--5----5--5----
C|----7----7--7-----7--7-----7--7--7--7----7--7----
F|-------------------------------------------------

C|----0----0--0-----0--0-----0--0--0--0----0-------
G|----0----0--0-----0--0-----0--0--0--0----0-------
E|----7----7--7-----7--7-----7--7--7--7----7-------
B|-------------------------------------------------
F|----5----5--5-----5--5-----5--5--5--5----5-------
C|----7----7--7-----7--7-----7--7--7--7----7-------
F|-------------------------------------------------
[ Tab from: http://www.guitartabs.cc/tabs/d/deftones/bloody_cape_tab_ver_3.html ]
C|----0----0--0-----0--0-----0--0--0--0----0-------
G|----3----3--3-----3--3-----3--3--3--3----3-------
E|----3----3--3-----3--3-----3--3--3--3----3-------
B|----0----0--0-----0--0-----0--0--0--0----0-------
F|-------------------------------------------------
C|----3----3--3-----3--3-----3--3--3--3----3-------
F|-------------------------------------------------

C|----0----0--0-----0--0---------------------------
G|----3----3--3-----3--3---------------------------
E|----3----3--3-----3--3---------------------------
B|----0----0--0-----0--0---------------------------
F|-------------------------------------------------
C|----3----3--3-----3--3---------------------------
F|-------------------------------------------------


Verse3: 
C|---------------------------------------------------------------------
G|---------------------------------------------------------------------
E|---------------------------------------------------------------------
B|------------------------------------------5----5-5---5--5--5--5------
F|--2h4--4--7h4--4--2h4--4--7h4--4--7h4--7--5----5-5---5--5--5--5------
C|--2h4--4--7h4--4--2h4--4--7h4--4--7h4--7--3----3-3---3--3--3--3------
F|--2h4--4--7h4--4--2h4--4--7h4--4--7h4--7-----------------------------


C|--------------------------------------------------------------------
G|--------------------------------------------------------------------
E|--------------------------------------------------------------------
B|------------------------------------------5----5-5---5--5--5/7--7---
F|--2h4--4--7h4--4--2h4--4--7h4--4--7h4--7--5----5-5---5--5--5/7--7---
C|--2h4--4--7h4--4--2h4--4--7h4--4--7h4--7--3----3-3---3--3--3/5--5---
F|--2h4--4--7h4--4--2h4--4--7h4--4--7h4--7----------------------------



Bridge:
C|-------------------------------------------------------
G|-------------------------------------------------------
E|-------------------------------------------------------
B|---4--6--6----4--6--6----4--6--6----4--6--6------------
F|---2--4--4----2--4--4----2--4--4----2--4--4------------
C|---2--4--4----2--4--4----2--4--4----2--4--4------------
F|---2--4--4----2--4--4----2--4--4----2--4--4------------


C|-------------------------------------------------------
G|-------------------------------------------------------
E|-------------------------------------------------------
B|---4--6--6----4--6--6----4--6--6----4--6--6------------
F|---2--4--4----2--4--4----2--4--4----2--4--4------------
C|---2--4--4----2--4--4----2--4--4----2--4--4------------
F|---2--4--4----2--4--4----2--4--4----2--4--4------------



Song Order:  
Verse1
Verse2
Verse3 - 2x
Verse1 - 3x
Verse2
Verse3 - 2x
Verse1 - 3x
Verse2
Verse3 - 2x
Bridge 
Verse3
Bridge - 3x
Comments