Deftones - Birthmark Chords & Tabs

 

Birthmark Chords & Tabs

Deftones Chords & Tabs

Version: 6 Type: Tab 0 ratings
1 star 2 stars 3 stars 4 stars 5 stars
comments

Birthmark Tab

   
Deftones	Birthmark
E-A-D-G-B-E

Intro
|-12--------------12----12---------12-------12-------------3~~~~~~-|
|--11--------------11----11----------11------11------------0~~~~~~-|
|---10--------------10----10-----------10-----10-----------0~~~~~~-|
|-----9---------------9-----9-------------------9----------2~~~~~~-|
|------0---------------------0-------------0---------------2~~~~~~-|
|-------0-----------------------------------0--------------0~~~~~~-|

Couplet
|------------------------------------------------------------------------------------|
|------------------------------------------------------------------------------------|
|-------------------------------------------0--0---0-0---0---0-0---0---0-0-----------|
|-9--9---9-9---9---9-9---9---9-9------------9--9---9-9---9---9-9---9---9-9-----------|
|-7--7---7-7---7---7-7---7---7-7—10br---7---7--7---7-7---7---7-7---7---7-7—10b~r---7-|
|-0--0---0-0---0---0-0---0---0-0------8-----0--0---0-0---0---0-0---0---0-0-------8---|

Thème heurté
|----------------------------------------||-3~~~-|
|----------------------------------------||-0~~~-| final des premiers refrains
|----------------------------------------||-0~~~-|
|-2---5---5--4---4----2---5---5--4---4---||-2~~~-|
|-2---5---5--4p0-4p0--2---5---5--4p0-4p0-||-2~~~-|
|-0---3---3--2---2----0---3---3--2---2---||-0~~~-|

Passage bloqué du second couplet
|----------------------------------------|
|----------------------------------------|
|----------------------------------------|
|-9--9---9-9---9---9-9---9---9-9---9---9-|
|-7--7---7-7---7---7-7---7---7-7---7---7-|
|-0--0---0-0---0---0-0---0---0-0---0---0-|
.........................................
[ Tab from: http://www.guitartabs.cc/tabs/d/deftones/birthmark_tab_ver_6.html ]
Pont
|----------------------------------0~~~~-||------------------------------------|
|-0~~~~~----------3~~~~-------3-3~-0~~~~-||------------------------------------|
|-----------------2~~~~-------2-2~-------||------------------------------------|
|-2~~~~~-----ssss-0~~~~-------0-0~-2~~~~-||------------------------------------|
|-2~~~~~-----ssss-0~~~~-------0-0~-2~~~~-||-ssssssssssssssssssssssssssssssssss-|
|-0~~~~~-----ssss------------------0~~~~-||-ssssssssssssssssssssssssssssssssss-|



Final : jouer dans l'ordre : riff 1 4x / riff 2 / riff 3 / riff 2 / riff 4 / riff 1 3x / Outro

Riff 1					   Riff 2
|-------------------------------------||-------------------------------------|
|-------------------------------------||-------------------------------------|
|--------9---9-9-9-7---7--------------||--------9---9-9-9-7---7--------------|
|-2--2---9---9-9-9-7---7----5-----5\4-||-2--2----------------------5-----5\4-|
|-2--2---7---7-7-7-5---5----5-----5\4-||-2--2---7---7-7-7-5---5----5-----5\4-|
|-0--0-------------------0--3---0—3\2-||-0--0-------------------0--3---0—3\2-|

Riff 3					    Riff 4
|--------------------------------------||--------------------------------------|
|--------------------------------------||--------------------------------------|
|--------9---9-9-9-7---7-7/12-12-12\11-||--------9---9-9-9-7---7-7/12-12-12\14-|
|-2--2---------------------------------||-2--2---------------------------------|
|-2--2---7---7-7-7-5---5-5/10-10-10\-9-||-2--2---7---7-7-7-5---5-5/10-10-10\12-|
|-0--0---------------------------------||-0--0---------------------------------|

Outro
|-------------------------0~~~~~-|
|-------------------------0~~~~~-|
|--------9---9-9-9-7~~~~---------|
|-2--2---9---9-9-9-7~~~~--2~~~~~-|
|-2--2---7---7-7-7-5~~~~--2~~~~~-|
|-0--0--------------------0~~~~~-|
Comments