Deftones - Birthmark Chords & Tabs

 

Birthmark Chords & Tabs

Deftones Chords & Tabs

Version: 3 Type: Tab 0 ratings
1 star 2 stars 3 stars 4 stars 5 stars
comments

Birthmark Tab

#----------------------------------PLEASE NOTE---------------------------------#
#This file is the author's own work and represents their interpretation of the #
#song. You may only use this file for private study, scholarship, or research. #
#------------------------------------------------------------------------------##
#

Date: Thu, 20 Jun 1996 16:25:29 -0400
From: Valera 
Subject: TAB for Deftones   Birthmark  off of Adrenaline

[ Tab from: http://www.guitartabs.cc/tabs/d/deftones/birthmark_tab_ver_3.html ]
--
--|
--|------------------------------------------------|
--|----5-----5------5-----5--------5---------------|
--|----5-------5----5-------5------5---------------|
--|----4---------4---4--------4----4---------------|
--|------------------------------------------------|
--|------------------------------------------------|

--|-------------------------------------------------------|
--|-------------------------------------------------------|
--|-------------------------------------------------------|
--|----------------4>--------------------------4>---------|
--|2-22-2-22-2-22----2-3-------3-33-3-33-3-33-----2-3-----|
--|0-00-0-00-0-00--------------0-00-0-00-0-00-------------|

--|------------------|
--|------------------|
--|------------------|
--|------------------|  7x
--|--2--5-5-4--------|
--|--0--3-3-2--------|

Comments