Deftones - Birthmark Chords & Tabs

 

Birthmark Chords & Tabs

Deftones Chords & Tabs

Version: 1 Type: Tab 0 ratings
1 star 2 stars 3 stars 4 stars 5 stars
comments

Birthmark Tab

   
Deftones
Birthmark-Tuning in Standard all heavy distortion
on Adrenaline
Tab key:
{} = Pick Scrape
h = Hammer on
pm... = Palm Mute
b = Bend
>< = slide
*= special directions
+ numbers above single digits are in () its a (12)not a 1 and a 2

INTRO
*let ring throughout speed varies
E[-(12)------------12----12----------12-------0-----------]
B[-----(11)--------11------11--------11-------8-----------]
G[---------(10)----10--------10------10-------0-----------]
D[-------------0----0----------0------0-------6-----------]
A[-------------0----0----------0------0-------0-----------]
E[--------------------------------------------------------]

Riff 1
E[--------------------------------------------------------]
B[--------------------------------------------------------]
G[--------------------------------------------------------]
D[-----------------5b-0----5-55-5-55-5-55--5b-0-----------]
A[----------------------7-----------------------7---------]
E[--0-00-0-00-0-00---------0-00-0-00-0-00-----------------]
                                                        *x2
Riff 2               
E[---------------------][------------------------][--0--]
B[---------------------][------------------------][--8--]
G[---------------------][------------------------][--0--]
D[---2----4--4----0--0-][--0-h2-2--4--4---0--0---][--6--]
A[---2----4--4----0--0-][--0-h2-2--4--4---0--0---][--0--]
E[---0----2--2----2--2-][--0--0-2--2--2---2--2---][-----]
                    x1                       x7                                 

*Verse 1 Lyrics start here but there is a big pause
Riff 1
E[--------------------------------------------------------]
B[--------------------------------------------------------]
G[--------------------------------------------------------]
D[-----------------5b-0----5-55-5-55-5-55--5b-0-----------]
A[----------------------7-----------------------7---------]
E[--0-00-0-00-0-00---------0-00-0-00-0-00-----------------]
                                                        *x2

Riff 2               
E[---------------------][------------------------][--0--]
B[---------------------][------------------------][--8--]
G[---------------------][------------------------][--0--]
D[---2----4--4----0--0-][--0-h2-2--4--4---0--0---][--6--]
A[---2----4--4----0--0-][--0-h2-2--4--4---0--0---][--0--]
E[---0----2--2----2--2-][--0--0-2--2--2---2--2---][-----]
                    x1                       x7           
[ Tab from: http://www.guitartabs.cc/tabs/d/deftones/birthmark_tab.html ]
Verse 2 new riff no pause all palm muted, then revert back to Riff 1
E[--------------------------------------------------------]
B[--------------------------------------------------------]
G[--------------------------------------------------------]
D[--------------------------------------------------------]
A[--------------------------------------------------------]
E[-0-00-0-00-0-00-0-00-0-00-0-00-0-00-0-00-0-00-0-00-0-00-]
pm ........................................................

Riff 1
E[--------------------------------------------------------]
B[--------------------------------------------------------]
G[--------------------------------------------------------]
D[-----------------5b-0----5-55-5-55-5-55--5b-0-----------]
A[----------------------7-----------------------7---------]
E[--0-00-0-00-0-00---------0-00-0-00-0-00-----------------]
                                                        *x2

Riff 2               
E[---------------------][------------------------][--0--]
B[---------------------][------------------------][--8--]
G[---------------------][------------------------][--0--]
D[---2----4--4----0--0-][--0-h2-2--4--4---0--0---][--6--]
A[---2----4--4----0--0-][--0-h2-2--4--4---0--0---][--0--]
E[---0----2--2----2--2-][--0--0-2--2--2---2--2---][-----]
                    x1                       x7           

                           *don’t strum this note
                           *Place the pick side ways on the     
                           *strings and scrape up an down 
Fill                       *As fast as you can
E[-------------------------^----------------------------]
B[-------------------------^----------------------------]
G[---9-----9>7-----77-----75-----54------------------------------]
A[--2-2--7-77--5--5-4-5->4------------------------------]
E[--0-0-----------3-2-3->2------------------------------]
                                                x4
Outro Riff 2
E[-------------------------------------------------------]
B[-------------------------------------------------------]
G[-------9-99-7-----------------9-99-7-(12-12-12>11------]
D[--2-2----------5-4-5->4--2-2---------------------------]
A[--2-2--7-77-5--5-4-5->4--2-2--7-77-5-(10-10-10>-9------]
E[--0-0----------3-2-3->2--0-0---------------------------]

E[-------------------------------------------------------]
B[-------------------------------------------------------]
G[-------9-99-7-----------------9-99-7-(12-12-12>14------]
D[--2-2----------5-4-5->4--2-2---------------------------]
A[--2-2--7-77-5--5-4-5->4--2-2--7-77-5-(10-10-10>12------]
E[--0-0----------3-2-3->2--0-0---------------------------]

Outro riff 1
E[------------------------------------------------------]
B[------------------------------------------------------]
G[-------9-99--7----------------------------------------]
D[--2-2--9-99--7--5-4-5->4------------------------------]
A[--2-2--7-77--5--5-4-5->4------------------------------]
E[--0-0-----------3-2-3->2------------------------------]
                                        x3 

Outro Fin   *let ring  
E[------------^-------0---------------------------------]
B[------------^-------5---------------------------------]
G[-------9-99-7-------4---------------------------------]
D[--2-2--9-99-7-------0---------------------------------]
A[--2-2--7-77-5-------0---------------------------------]
E[--0-0-------------------------------------------------]
Comments