Deftones - Be Quiet And Drive Acoustic Chords & Tabs

 

Be Quiet And Drive Acoustic Chords & Tabs

Deftones Chords & Tabs

Version: 5 Type: Tab 0 ratings
1 star 2 stars 3 stars 4 stars 5 stars
comments

Be Quiet And Drive Acoustic Tab

This is my version of the song. Sounds perfect to me. Thanks Chris.

Deftones play this in CGCFAD, but you can play it simply in Drop - D if you want

This is the Very beginning of the song the guitar goes
"This Town Don't Feel Mine, I'm Fast to Get away-Far"
Verse 1
D--------------------------
A--------------------------
F--11----------11----------
G--11----------11----------
C--9------------0----------
G--9------------0----------

In Between Verses, This Part comes in
[ Tab from: http://www.guitartabs.cc/tabs/d/deftones/be_quiet_and_drive_acoustic_tab_ver_5.html ]
D----------0----------0------
A-----------------------10---
F---11--11----11--11-------11
C---11------------0----------
G---9-----9--9----0----------
C---9-------------0----------

Then Strum
"I dressed you in her clothes
Now drive me far" 

D----------------------------
A----------------------------
F----11----11----------------
C----9-----0-----------------
G----9-----0-----------------
C----9-----0-----------------

When Repeating "Away"
*=Repeat as Necassary
D----------------------------
A----------------------------
F----7*------7*--------------
C----7*------7*--------------
G----5*------5*--------------
C----0*------5*--------------

Tabbed By Ramzi
Comments, Questions
sx3a@yahoo.com
Comments