Deftones - Be Quiet And Drive Acoustic Chords & Tabs

 

Be Quiet And Drive Acoustic Chords & Tabs

Deftones Chords & Tabs

Version: 1 Type: Tab 1 rating
1 star 2 stars 3 stars 4 stars 5 stars
comments

Be Quiet And Drive Acoustic Tab

This is the version they played on MTV Acoustic (dropped d-tuning)

I tried out the other tab for this song, but it wasn't that right, so I
decided to tab it.
I tried to tab the riffs that Mike (Incubus) uses to go from the
verse into the chorus and also the riff he uses to go from the "light" part
to the "heavy" part. It's not easy to get the right timing there.


The order is given, so...enjoy!


Verse 1
   
e-------------------------------------------
b---------------------------------5---------
g------11------11-----------7---7---7-------
d------11---11----11----------4-------4-----
a----9----9----------9----5-----------------
D--9--------------------0-------------------

e-------------------------------------------
b---------------------------------5---------
g------11------11-----------7---7---7-------
d------11---11----11----------4-------4-----
a----9----9----------9----5-----------------
D--9--------------------0-------------------

e-------------------------------------------
b---------------------------------5---------
g------11------11-----------7---7---7-------
d------11---11----11----------4-------4-----
a----9----9----------9----5-----------------
D--9--------------------0-------------------
[ Tab from: http://www.guitartabs.cc/tabs/d/deftones/be_quiet_and_drive_acoustic_tab.html ]
e-------------------------------------------
b---------------------------------5---------
g------11------11-----------7---7---7-------
d------11---11----11----------4-------4-----
a----9----9----------9----5-----------------
D--9--------------------0-------------------


Verse 2

e-------------------------------------------
b-----------------------5--5-5-5-5---5------
g----11-11111111---11---7--7-7-7-7---7------
d----11-11111111---11---4--4-4-4-4---4------
a----9--9-9-9-9----9----5--5-5-5-5-5-5------
D--9-9--9-9-9-9--9-9--0-0--0-0-0-0-0-0------

e-------------------------------------------
b-----------------------5--5-5-5-5---5------
g----11-11111111---11---7--7-7-7-7---7------
d----11-11111111---11---4--4-4-4-4---4------
a----9--9-9-9-9----9----5--5-5-5-5-5-5------
D--9-9--9-9-9-9--9-9--0-0--0-0-0-0-0-0------

e-------------------------------------------
b-----------------------5--5-5-5-5---5------
g----11-11111111---11---7--7-7-7-7---7------
d----11-11111111---11---4--4-4-4-4---4------
a----9--9-9-9-9----9----5--5-5-5-5-5-5------
D--9-9--9-9-9-9--9-9--0-0--0-0-0-0-0-0------

e------------------------------------------------------
b-----------------------5--5---------------------------
g----11-11111111---11---7--7--9/11-11-11--9-9-9--9-9---
d----11-11111111---11---4--4--9/11-11-11--9-9-9--9-9---  
Comments