Deftones - Battle Axe Chords & Tabs

 

Battle Axe Chords & Tabs

Deftones Chords & Tabs

Version: 1 Type: Tab 0 ratings
1 star 2 stars 3 stars 4 stars 5 stars
comments

Battle Axe Tab

Band: Deftones
Album: Deftones
Tabber: Evan Biondo

This song is called Battle-axe.  Its an awesome song off the new Deftones cd.
I figured this song out by just playing with the cd and am 99.9999% sure that
this is right.  The intro part isnt tabbed completely right, but you'll get the
idea when you play it out.  The song is tuned in Drop-D down a half-step.

[ Tab from: http://www.guitartabs.cc/tabs/d/deftones/battle_axe_tab.html ]
Intro
Eb------------0--------------------------------
Bb----------3----3-----------------------------
Gb------0----------0----0----0-----------------
Db----4---4----------4----4----4---------------
Ab--2------------------------------------------
Db--------------------------------0------------

2nd Riff and Chorus Riff
I'm not gonna put the number of times you play each chord
It's easy enough to get it
Eb------------------
Bb------------------
Gb--4---------------
Db--4---3---0---2---
Ab--2---3---0---2---
Db------3---0---2---

Verse Riff
This riff is very cool, but once again you need to the song
to get the bet of it.
Eb------------
Bb------------
Gb---4--7-----
Db---4--x-----
Ab---2--5-----
Db------0-----

Thats the song.  Email me for questions, comments, whatever at biondokorn@hotmail.com.
Comments