Deftones - Back To School Chords & Tabs

 

Back To School Chords & Tabs

Deftones Chords & Tabs

Version: 9 Type: Tab 0 ratings
1 star 2 stars 3 stars 4 stars 5 stars
comments

Back To School Tab

   
tabbed by: Dephtonez00..im badass!!
Band: Deftones
Song: Back To School
Album: White Pony
tunning: (C, G, C, F, A, D,)

Intro (dist.)
D|------------------1313131313131313----------------------------------------
A|------------------1010101010101010----------------------------------------
F|-1010101010101010---------------------------------------------------------
C|--------------------------------------------------------------------------
G|--------------------------------------------------------------------------
C|--------------------------------------------------------------------------

verse (heavy dist.)
D|--------------------------------------------------------------------------
A|--------------------------------------------------------------------------
F|-10-----10-10-10-10-------------------------------------------------------
C|-8---0--0--0--0--0--------------------------------------------------------
G|-8---0--------------------------------------------------------------------
C|-8---0--------------------------------------------------------------------
[ Tab from: http://www.guitartabs.cc/tabs/d/deftones/back_to_school_tab_ver_9.html ]
verse 2 (heavy dist.)
D|--------------------------------------------------------------------------
A|--------------------------------------------------------------------------
F|--------------10-10-10-10-------------------------------------------------
C|--------------0--0--0--0--------------------------------------------------
G|--------------------------------------------------------------------------
C|-5--4---8--0--------------------------------------------------------------

chorus (heavy dist.) !PLAY EACH CHORD 8 TIMES!
D|--------------------------------------------------------------------------
A|--------------------------------------------------------------------------
F|-1010101010101010--1010101010101010--77777777--66666666-------------------
C|-8-8-8-8-8-8-8-8---0-0-0-0-0-0-0-0---55555555--44444444-------------------
G|-8-8-8-8-8-8-8-8---0-0-0-0-0-0-0-0---55555555--44444444-------------------
C|-8-8-8-8-8-8-8-8---0-0-0-0-0-0-0-0---55555555--44444444-------------------

second chorus (heavy dist.)
D|--------------------------------------------------------------------------
A|--------------------------------------------------------------------------
F|-1010101010101010--1010101010101010--1212121212121212---14141414/15151515-
C|-8-8-8-8-8-8-8-8---0-0-0-0-0-0-0-0----x-x-x-x-x-x-x-x----x-x-x-x/-x-x-x-x-
G|-8-8-8-8-8-8-8-8---0-0-0-0-0-0-0-0---10-10-10-10-10-10--12121212/13131313-
C|-8-8-8-8-8-8-8-8---0-0-0-0-0-0-0-0----------------------------------------

Intro:x2
verse:x4
verse 2:x4
chorus:x2
verse 2:x4
chorus:x2
second chorus:x2
pause for 5 seconds
chorus:x4
second chorus:x2
Comments