Deftones - Back To School Chords & Tabs

 

Back To School Chords & Tabs

Deftones Chords & Tabs

Version: 5 Type: Tab 0 ratings
1 star 2 stars 3 stars 4 stars 5 stars
comments

Back To School Tab

Back 2 School
Artist: Deftones
Tabbed by Ratmer (Ratmer@gmx.at)

Dropped-D tuning transposed one whole step (low to high: CGCFAD)

Pre-Intro 

D|--13-13-13-13-13-13-13-13-13---13-13-13-13-13-13-13-13-13-
A|---x--x--x--x--x--x--x--x--x---10-10-10-10-10-10-10-10-10-
F|--10-10-10-10-10-10-10-10-10---10-10-10-10-10-10-10-10-10-
C|-----------------------------------x----------------------
G|----------------------------------10----------------------
C|----------------------------------------------------------

D|--13-13-13-13-13-13-13-13-13---13-13-13-13-13-13-13-13-13-
A|---x--x--x--x--x--x--x--x--x---10-10-10-10-10-10-10-10-10-
F|--10-10-10-10-10-10-10-10-10---10-10-10-10-10-10-10-10-10-
C|--------------------------------x-------------------------
G|-------------------------------10-------------------------
C|----------------------------------------------------------

Intro / Interlude   w/heavy distortion          let it ring!

D|----------------------------------------------------------
A|----------------------------------------------------------
F|----------10-10-10-10-----------(10)-(10)-(10)-(10)------- 
C|--8---0----0--0--0--0---8---0----(0)--(0)--(0)--(0)------- 
G|--8---0-----------------8---0-----------------------------
C|--8---0-----------------8---0-----------------------------

Verse   w/distortion 

D|----------------------------------------------------------
A|----------------------------------------------------------
F|------------------------10-10-10--------------------------
C|-------------------------0--0--0--------------------------
G|----------------------------------------------------------
C|--5-5---4-4---8-8--0-0------------------------------------

Chorus w/heavy distortion
[ Tab from: http://www.guitartabs.cc/tabs/d/deftones/back_to_school_tab_ver_5.html ]
D|----------------------------------------------------------
A|----------------------------------------------------------
F|--10-10-10-10--10-10-10-10--10-10-10-10--10-10-10-10------
C|---8--8--8--8---8--8--8--8---8--8--8--8---8--8--8--8------
G|---8--8--8--8---8--8--8--8---8--8--8--8---8--8--8--8------
C|---8--8--8--8---8--8--8--8---8--8--8--8---8--8--8--8------



D|----------------------------------------------------------
A|----------------------------------------------------------
F|----------------------------------------------------------
C|---0-0-0-0--0-0-0-0--0-0-0-0--0-0-0-0---5-5-5-5--5-5-5-5--
G|---0-0-0-0--0-0-0-0--0-0-0-0--0-0-0-0---5-5-5-5--5-5-5-5--
C|---0-0-0-0--0-0-0-0--0-0-0-0--0-0-0-0---5-5-5-5--5-5-5-5--


D|----------------------------------------------------------
A|----------------------------------------------------------
F|----------------------------------------------------------
C|---5-5-5-5--5-5-5-5--5-4-4-4--4-4-4-4--4-4-4-4--4-4-4-4---
G|---5-5-5-5--5-5-5-5--5-4-4-4--4-4-4-4--4-4-4-4--4-4-4-4---
C|---5-5-5-5--5-5-5-5--5-4-4-4--4-4-4-4--4-4-4-4--4-4-4-4---

2nd Track (Play during final chorus) (Use a sampler, if possible)

D|----------------------------------------------------------
A|----------------------------------------------------------
F|---14-14-14/15-15-15/17-17-17-17--------------------------
C|----x--x--x--x--x--x--x--x--x--x--------------------------
G|---12-12-12/13-13-13/15-15-15-15--------------------------
C|----------------------------------------------------------

End:

D|----------------------------------------------------------
A|----------------------------------------------------------
F|-----------10-10-10-10------------------------------------
C|---8---0----0--0--0--0------------------------------------
G|---8---0--------------------------------------------------
C|---8---0--------------------------------------------------
                                                   Fade out...

/ = Slide

Order:

Pre-Intro 1x
Intro     4x
Verse     4x
Chorus    2x
Verse     4x
Chorus    4x + 2nd Track (simultaneous)
Interlude 2x
Chorus    6x + 2nd Track (simultaneous)
Interlude 1x
End    1x 
 
Listen to the CD to get the rhythm. It isn t that difficult.
If you have questions or suggestions, just e-mail me. 
And the funk will never die...


Comments