Deftones - Back To School Chords & Tabs

 

Back To School Chords & Tabs

Deftones Chords & Tabs

Version: 2 Type: Tab 0 ratings
1 star 2 stars 3 stars 4 stars 5 stars
comments

Back To School Tab

   
Back To School
D E F T O N E S
Tabbed By Aaron Bridgeman (rokken@sicness.net)

http://bogans.arecool.net

TUNING: Drop D down 1 step (C G C F A D)

KEY:
p = pull-off
h = hammer-on

INTRO 1:
d|----------------------------|
A|---------------10-----------|
F|--10- repeat --10- repeat --|
C|----------------------------|
G|----------------------------|
C|----------------------------|
[ Tab from: http://www.guitartabs.cc/tabs/d/deftones/back_to_school_tab_ver_2.html ]
INTRO 2:
d|---------------|
A|---------------|
F|--------10--10-|
C|--------x---x--|
G|-8--0---8---8--|
C|-8--0---0---0--|

VERSE:
d|---------------------------|
A|---------------------------|
F|------------------------10-|
C|------------------------x--|
G|------------------------8--|
C|-6--6--6-5--5--8----0---0--|

CHORUS:
d|------------------------------------------------|
A|------------------------------------------------|
F|---------10-------------------------------------|
C|-8-------x--------5-----------------------------|
G|-8- x16 -8-- x16 -5- x16 -5p4-4-4-4-4-4-4h5-5-5-|
C|-8-------0--------5-------5p4-4-4-4-4-4-4h5-5-5-|

Deftones rock.
Comments