Deftones - Around The Fur Chords & Tabs

 

Around The Fur Chords & Tabs

Deftones Chords & Tabs

Version: 4 Type: Tab 0 ratings
1 star 2 stars 3 stars 4 stars 5 stars
comments

Around The Fur Tab

   
I TAKE CREDIT FOR NONE OF THESE TABS(except where noted), I MERELY THREW THEM TOGETHER AS
THE WHOLE Around the Fur ALBUM. All tabs seen here were already previously submitted tabs.
*I decided to update a few of these tabs which i thought weren't transcribed too well; i
realize why it got the 3-star rating before.


1. My Own Summer
2. Lhabia
3. Mascara
4. Around the Fur
5. Rickets (updated)
6. Be Quiet and Drive
7. Lotion (updated; the tab before was terrible)
8. Dai the Flu (updated)
9. Headup
10. Mx
(hidden track) - Damone

_______________________________________________________________________________
1. My Own Summer
----
My Own Summer (Shove It)
Deftones
Around The Fur
Transcribed by Leigh Winik (MoooManCow@aol.com)

Riff A
Eb|---------------------------------| x8
Bb|---------------------------------|
Gb|---------------------------------|
Db|---------------------------------|
Ab|---------------------------------|
Db|0-11-12-0-11-8-0-8-0-8-7-0-8-5---|


Chorus Riff
Eb|------------------------------| x4
Bb|------------------------------|
Gb|------------------------------|
Db|0-7-8-0-8-5-0-5-0-5-7-0-8-4---|
Ab|0-7-8-0-8-5-0-5-0-5-7-0-8-4---|
Db|0-7-8-0-8-5-0-5-0-5-7-0-8-4---|

Riff A x8

Chorus Riff x4

Bridge Riff 1
Eb|----------------------------------------------------------------|
Bb|----------------------------------------------------------------|
Gb|9-9-9-9-9-9-9-9-9-9-9-9-9-9-9-9-9-9-9-9-9-9-9-9-9-9-9-9-9-9-9-9-|
Db|8-8-8-8-8-8-8-8-8-8-8-8-8-8-8-8-8-8-8-8-8-8-8-8-8-8-8-8-8-8-8-8-|
Ab|8-8-8-8-8-8-8-8-8-8-8-8-8-8-8-8-8-8-8-8-8-8-8-8-8-8-8-8-8-8-8-8-|
Db|8-8-8-8-8-8-8-8-8-8-8-8-8-8-8-8-8-8-8-8-8-8-8-8-8-8-8-8-8-8-8-8-|

Bridge Riff 2
Eb|------------------------------|Let bottom three strings ring a little
Bb|------------------------------|on the open chords
Gb|------------------------------|
Db|5-5-5-8-0---5-5-5-8---0-0-0---|
Ab|5-5-5-8-0---5-5-5-8---0-0-0---|
Db|5-5-5-8-0---5-5-5-8---0-0-0---|

Bridge Riff

Bridge Riff 2 (let ring)

Wait (drums and bass)

Chorus Riff x8

Bridge Riff 1

Bridge Riff 2

Bridge Riff 1

Bridge Riff 2 x4 (let ring)

Wait

Chorus Riff x4
_____________________________________________________________________________
2. Lhabia
---
Date: Mon, 10 Nov 1997 14:05:12 -0500
From: Matthew Wynn
Subject: Lhabia


BAND:Deftones
ALBUM:Around The Fur
SONG:Lhabia

Tuning:- (half a step down and then "Dropped D")

1:Eb  4:Db
2:Bb  5:Ab
3:Gb  6:Db

Intro: (Distortion and Palm Muting)
Eb---------------------------------------|
Bb---------------------------------------|
Gb---------------------------------------|
Db--0-2-2-2--0-2-2-2--0-2-2-2--0--3-3-3--|
Ab--0-2-2-2--0-2-2-2--0-2-2-2--0---------|
Db--0-2-2-2--0-2-2-2--0-2-2-2--0---------|  }
                                            }
P.M.----------------------------|           } (This is all one measure)
                                            }      play four times
Eb--------------------------------------|   }
Bb--------------------------------------|
Gb--------------------------------------|
Db--0-2-2-2--0-2-2-2--0-2-2-2-2--0-0-0--|
Ab--0-2-2-2--0-2-2-2--0-2-2-2-2--0-0-0--|
Db--0-2-2-2--0-2-2-2--0-2-2-2-2--0-0-0--|

P.M.----------------------------------|


Verse: (whispered lyrics and joined by Bass)

Eb---------------------------------------|
Bb---------------------------------------|
Gb---------------------------------------|
Db--0-2-2-2--0-2-2-2--0-2-2-2--0--3-3-3--|
Ab--0-2-2-2--0-2-2-2--0-2-2-2--0---------|
Db--0-2-2-2--0-2-2-2--0-2-2-2--0---------|  }
                                            }
P.M.----------------------------|           }  Same as above Play four times
                                            }
Eb--------------------------------------|   }
Bb--------------------------------------|
Gb--------------------------------------|
Db--0-2-2-2--0-2-2-2--0-2-2-2-2--0-0-0--|
Ab--0-2-2-2--0-2-2-2--0-2-2-2-2--0-0-0--|
Db--0-2-2-2--0-2-2-2--0-2-2-2-2--0-0-0--|

P.M.----------------------------------|

Chorus:

Eb----------------------------|
Bb----------------------------|
Gb----------------------------| X4
Db--4/6-6-6-6--X-X--7--X-X-2--|
Ab--4/6-6-6-6--X-X--7--X-X-2--|
Db--4/6-6-6-6--X-X--7--X-X-2--|


Interlude:(same as intro, no bass here)

Eb---------------------------------------|
Bb---------------------------------------|
Gb---------------------------------------|
Db--0-2-2-2--0-2-2-2--0-2-2-2--0--3-3-3--|
Ab--0-2-2-2--0-2-2-2--0-2-2-2--0---------|
Db--0-2-2-2--0-2-2-2--0-2-2-2--0---------|  }
                                            }
P.M.----------------------------|           }   X2
                                            }
Eb--------------------------------------|   }
Bb--------------------------------------|
Gb--------------------------------------|
Db--0-2-2-2--0-2-2-2--0-2-2-2-2--0-0-0--|
Ab--0-2-2-2--0-2-2-2--0-2-2-2-2--0-0-0--|
Db--0-2-2-2--0-2-2-2--0-2-2-2-2--0-0-0--|

P.M.----------------------------------|


Verse 2: (whispered lyrics and joined by Bass)

Eb---------------------------------------|
Bb---------------------------------------|
Gb---------------------------------------|
Db--0-2-2-2--0-2-2-2--0-2-2-2--0--3-3-3--|
Ab--0-2-2-2--0-2-2-2--0-2-2-2--0---------|
Db--0-2-2-2--0-2-2-2--0-2-2-2--0---------|  }
                                            }
P.M.----------------------------|           }  X4
                                            }
Eb--------------------------------------|   }
Bb--------------------------------------|
Gb--------------------------------------|
Db--0-2-2-2--0-2-2-2--0-2-2-2-2--0-0-0--|
Ab--0-2-2-2--0-2-2-2--0-2-2-2-2--0-0-0--|
Db--0-2-2-2--0-2-2-2--0-2-2-2-2--0-0-0--|

P.M.----------------------------------|


Chorus:

Eb----------------------------|
Bb----------------------------|
Gb----------------------------| X8
Db--4/6-6-6-6--X-X--7--X-X-2--|
Ab--4/6-6-6-6--X-X--7--X-X-2--|
Db--4/6-6-6-6--X-X--7--X-X-2--|


Bridge: (Shouted Lyrics)

Eb--------------------------------------------------|
Bb--------------------------------------------------|
Gb--------------------------------------------------| X2
Db--7-7-7-7-7-7-7-7--6-6-6-6-6-6-6-6--X-2-2----0-0--|
Ab--7-7-7-7-7-7-7-7--6-6-6-6-6-6-6-6--X-2-2----0-0--|
Db--7-7-7-7-7-7-7-7--6-6-6-6-6-6-6-6--X-2-2----0-0--|

Eb-------------------------------------------|
Bb-------------------------------------------|
Gb-------------------------------------------|  X1
Db--7-7-7-7-7-7-7-7--6-6-6-6-6-6-6-6--X-2-2--|
Ab--7-7-7-7-7-7-7-7--6-6-6-6-6-6-6-6--X-2-2--|  Let Ring...
Db--7-7-7-7-7-7-7-7--6-6-6-6-6-6-6-6--X-2-2--|


Chorus: (Muted)

Eb----------------------------|
Bb----------------------------|
Gb----------------------------| X4
Db--4/6-6-6-6--X-X--7--X-X-2--|
Ab--4/6-6-6-6--X-X--7--X-X-2--|
Db--4/6-6-6-6--X-X--7--X-X-2--|

Verse 3: (whispered lyrics and Bass)

Eb---------------------------------------|
Bb---------------------------------------|
Gb---------------------------------------|
Db--0-2-2-2--0-2-2-2--0-2-2-2--0--3-3-3--|
Ab--0-2-2-2--0-2-2-2--0-2-2-2--0---------|
Db--0-2-2-2--0-2-2-2--0-2-2-2--0---------|  }
                                            }
P.M.----------------------------|           }  X4
                                            }
Eb--------------------------------------|   }
Bb--------------------------------------|
Gb--------------------------------------|
Db--0-2-2-2--0-2-2-2--0-2-2-2-2--0-0-0--|
Ab--0-2-2-2--0-2-2-2--0-2-2-2-2--0-0-0--|
Db--0-2-2-2--0-2-2-2--0-2-2-2-2--0-0-0--|

P.M.----------------------------------|


Chorus:

Eb----------------------------|
Bb----------------------------|
Gb----------------------------| X8
Db--4/6-6-6-6--X-X--7--X-X-2--|
Ab--4/6-6-6-6--X-X--7--X-X-2--|
Db--4/6-6-6-6--X-X--7--X-X-2--|


Outro: (Play this again once)

Eb----------------------------------------------------|
Bb----------------------------------------------------|
Gb----------------------------------------------------|  Let ring...
Db--7-7-7-7-7-7-7-7--6-6-6-6-6-6-6-6--X-2-2-----0-0---|
Ab--7-7-7-7-7-7-7-7--6-6-6-6-6-6-6-6--X-2-2-----0-0---|
Db--7-7-7-7-7-7-7-7--6-6-6-6-6-6-6-6--X-2-2-----0-0---|
_____________________________________________________________________________
3. Mascara
---
Deftones - Mascara
(Db Ab Db Gb Bb Eb)

the other tab for this song was pretty bad..so heres the better version

Intro/Verse
eb---------------------------------------------|
Bb---------------------------------------------|
Gb----------------(0)--------------------------|
Db---------------------------------------------|
Ab---------5-0---------------------------------|
Db--/8-7-4-----4-------------------------------|
like 2 or 3 times in the song, the (0) will be played

Chorus
eb------------------------------------------|
Bb------------------------------------------|
Gb------------------------------------------|
Db--8-8-8-8-8-8-8-8-4-4-4-2-4-4-2-4---------|
Ab--8-8-8-8-8-8-8-8-4-4-4-2-4-4-2-4---------|
Db--8-8-8-8-8-8-8-8-4-4-4-2-4-4-2-4---------|

"well its too bad" part
eb------------------------------------------|
Bb------------------------------------------|
Gb------------------------------------------|
Db--7-7-7-7---------------------------------|
Ab--5-5-5-5--4-4-4-4------------------------|
Db-----------4-4-4-4------------------------|

Riff before transition to outro
eb--------------------------------------------|
Bb--------------------------------------------|
Gb--------------------------------------------|
Db--7-7-7-7-7-7-7-7----2----------------------|
Ab--5-5-5-5-5-5-5-5-4--2----------------------|
Db------------------4--2----------------------|

Outro
eb------------------------------------------|
Bb------------------------------------------|
Gb-1----------------------------------------|
Db---1--------------------------------------|
Ab-----1------------------------------------|
Db-------2----------------------------------|

t(-_-t) enjoy
_____________________________________________________________________________
4. Around the Fur
---
Deftones
Around The Fur

Tab by Lirikal


 h=HammerOn
 p=PullOff
 \=slide


INTRO & VERSE:

                Db5      B5          G5    x4                  Db5      B5
eb-|-----------------------------------------|-----------------------------|
Bb-|-----------------------------------------|-----------------------------|
Gb-|*---------------------------------------*|-----------------------------|
Db-|*-----------12-12-12-10-10-10-10-6-6-6--*|--10h12p10h12p10-12-12-12-10-|
Ab-|------------12-12-12-10-10-10-10-6-6-6---|--10h12p10h12p10-12-12-12-10-|
Db-|---0-0-0-0--12-12-12-10-10-10-10-6-6-6---|--10h12p10h12p10-12-12-12-10-|

            G5
eb-----------------|
Bb-----------------|
Gb-----------------|
Db-10-10-10-6-6-6--|
Ab-10-10-10-6-6-6--|
Db-10-10-10-6-6-6--|


                Db5       B5         G5    x3     Db5
eb-|-----------------------------------------|----------|
Bb-|-----------------------------------------|----2-----|
Gb-|*---------------------------------------*|----3-----|
Db-|*-----------12-12-12-10-10-10-10-6-6-6--*|----0-----|
Ab-|------------12-12-12-10-10-10-10-6-6-6---|----0-----|
Db-|---0-0-0-0--12-12-12-10-10-10-10-6-6-6---|----0-----|


CHORUS:

       Db5  E5              F5              C5              x3
eb-|----------------------------------------------------------|--------|
Bb-|----------------------------------------------------------|--------|
Gb-|*---------------------------------------6-6-6-6-6-6-6-6--*|--------|
Db-|*--0-0--3-3-3-3-3-3-3-3-4-4-4-4-4-4-4-4-6-6-6-6-6-6-6-6--*|--------|
Ab-|---0-0--3-3-3-3-3-3-3-3-4-4-4-4-4-4-4-4-4-4-4-4-4-4-4-4---|--------|
Db-|---0-0--3-3-3-3-3-3-3-3-4-4-4-4-4-4-4-4-------------------|--------|


    Db5  E5              Eb5                             Db5
eb--------------------------------------------------------------|
Bb-------------------------------------------------------2------|
Gb-------------------------------------------------------3------|
Db--0-0--3-3-3-3-3-3-3-3-2-2-2-2-2-2-2-2-2-2-2-2-2-2-2-2-0------|
Ab--0-0--3-3-3-3-3-3-3-3-2-2-2-2-2-2-2-2-2-2-2-2-2-2-2-2-0------|
Db--0-0--3-3-3-3-3-3-3-3-2-2-2-2-2-2-2-2-2-2-2-2-2-2-2-2-0------|


OUTRO:

       Db5               B5          G5    x8
eb-|-----------------------------------------|-----------------------|
Bb-|-----------------------------------------|-----------------------|
Gb-|*---------------------------------------*|-----------------------|
Db-|*--0-0-0-0-0-0-0-0-0-10-10-10-10-6-6-6--*|-----------------------|
Ab-|---0-0-0-0-0-0-0-0-0-10-10-10-10-6-6-6---|-----\6--4--5----------|
Db-|---0-0-0-0-0-0-0-0-0-10-10-10-10-6-6-6---|-----------------6-----|
_____________________________________________________________________________
5. Rickets (this one was done by me)

Dropped Db Tuning: Db Ab Db Gb Bb Eb


Intro/Chorus

Eb-------------------------------|
Bb-------------------------------|
Gb-------------------------------|
Db--3-2-0-3-2-0-3-0-6-6-6-1-1-1--|
Ab--3-2-0-3-2-0-3-0-6-6-6-1-1-1--|
Db--3-2-0-3-2-0-3-0-6-6-6-1-1-1--|


Verse palm muted w/heavy distortion
[ Tab from: http://www.guitartabs.cc/tabs/d/deftones/around_the_fur_tab_ver_4.html ]
Eb-------------------------------|
Eb-------------------------------|
Eb-------------------------------|
Db--0h2h3-0h2h3-0h2h3-0h2h3--0-0-|
Ab--0h2h3-0h2h3-0h2h3-0h2h3--0-0-|
Db--0h2h3-0h2h3-0h2h3-0h2h3--0-0-|


breakdown

G--8-----8-----8---6-6-6-6-6--|
D--8-0-0-8-0-0-8-0-6-6-6-6-6--|
A--6-0-0-6-0-0-6-0-4-4-4-4-4--|
D----0-0---0-0---0------------|
_____________________________________________________________________________
6. Be Quiet and Drive
---
Key
** = Palm Mute
// = Slide
() = Harmonics on the number inside!

Possibly the best Deftones Song to date in my book, so I've tabbed it out it
may look a bit confusing but you'll get the hang of it!! Tune down half a
step and drop D!  On the chorus bit you can just bend the strings up if you
feel comfortable doing that I just slide to get the sound!!  Well enjoy!!
And tell me what you think!

Intro
e|-------------------/----------------------|
B|-------------------/----------------------|
G|-13-13-13-13-13-13-/-18-18-18-18-18-18----|
D|-x--x--x--x--x--x--/-x--x--x--x--x--x-----|
A|-12-12-12-12-12-12-/-17-17-17-17-17-17----|
D|-0--0--0--0--0--0--/-0--0--0--0--0--0-----|

Verse
e|----------------------------------------------------|
B|----------------------------------------------------|
G|-11-11-11-11-11-11-11-11--11-11-11-11-11-11-11-11---|
D|-x--x--x--x--x--x--x--x---11-11-11-11-11-11-11-11---|
A|-9--9--9--9--9--9--9--9---9--9--9--9--9--9--9--9----|
D|-0--0--0--0--0--0--0--0---9--9--9--9--9--9--9--9----|

Verse 2
e|----------------------------------------------------|
B|----------------------------------------------------|
G|-11-12-12-14-14-14-12-12--11-11-11-11-11-11-11-11---|
D|-x--x--x--x--x--x--x--x---11-11-11-11-11-11-11-11---|
A|-9--10-10-12-12-12-10-10--9--9--9--9--9--9--9--9----|
D|-0--0--0--0--0--0--0--0---9--9--9--9--9--9--9--9----|

Chorus
e|----------------------------------------------------|
B|----------------------------------------------------|
G|-11/12-11/12-11/12-11-11--11-11-11-11-11-11-11-11---|
D|-x-/x--x-/x--x-/x--x--x---11-11-11-11-11-11-11-11---|
A|-9-/10-9-/10-9-/10-9--9---9--9--9--9--9--9--9--9----|
D|-0-/0--0-/0--0-/0--0--0---9--9--9--9--9--9--9--9----|

Bridge 1
e|--------------------------------------------|
B|--------------------------------------------|
G|--------------------------------------------|
D|-0-0-0-(4)-0-0-0-(2)-0-0-0-(4)-33-44-5------|
A|-0-0-0-(4)-0-0-0-(2)-0-0-0-(4)-33-44-5------|
D|-0-0-0-(4)-0-0-0-(2)-0-0-0-(4)-33-44-5------|

Bridge 2
e|---------------------------------------|
B|---------------------------------------|
G|---------------------------------------|
D|-0-0-0-00-0-0-0-00-0-0-0-00-33-44-5----|
A|-0-0-0-00-0-0-0-00-0-0-0-00-33-44-5----|
D|-0-0-0-00-0-0-0-00-0-0-0-00-33-44-5----|
         **       **       **

SONG LAYOUT!

Intro x4
Verse 1 x3
Verse 2
Verse 1 x4
Intro x4
Chorus x2
Verse 1 x3
Verse 2
Intro x4
Chorus x4
Bridge 1 x2
Bridge 2
Bridge 1

Then just play the chorus till fades out I usually play it about 4
times and the play the bridge over again as it sounds cool once you
get it!  Well please rate and e-mail any comments if ya like!
e-mail - funkeymonkey10@hotmail.com
_____________________________________________________________________________
7. Lotion (this was done by me)

Intro/Verse w/ Distortion(use flanger for weird effect)
            "I MAKE!...."
Eb--0-0-0-0---------------------------------|
Eb--0-0-0-0---------------------------------|
Eb--3-3-3-3---------------------------------|
Db--2-2-2-2--0-1-1-1-0-1-1-1-0-1----1-1-1---|
Ab-----------0-1-1-1-0-1-1-1-0-1----1-1-1---|
Db-----------0-1-1-1-0-1-1-1-0-1----1-1-1---|
           pm----------------------------
Chorus
 "Its classical " 
Eb--------------------------------|
Eb--------------------------------|
Eb--------------------------------|
Db--0--4-4-4-4-4-0-5-5-5-5-5------|
Ab--0--4-4-4-4-4-0-5-5-5-5-5------|
Db--0--4-4-4-4-4-0-5-5-5-5-5------|

 Bridge("I feel sick...") 

Eb-------------------------------------------|
Eb-------------------------------------------|
Eb-------------------------------------------|
Db-0-1-1-1-0-1-1-1-0-1--1-1-1----4-4-4-0-0-0-|
Ab-0-1-1-1-0-1-1-1-0-1--1-1-1----4-4-4-0-0-0-|
Db-0-1-1-1-0-1-1-1-0-1--1-1-1----4-4-4-0-0-0-|
 pm--------------------------

Bridge 2 ("FEEL SICKENED!")and Outro
Eb-------------------------------------------|
Eb-------------------------------------------|
Eb-------------------------------------------|
Db-2-4-4-4-2-4-4-4-2-4-4-4---0-0-0-0---------|
Ab-2-4-4-4-2-4-4-4-2-4-4-4---0-0-0-0---------|
Db-2-4-4-4-2-4-4-4-2-4-4-4---0-0-0-0---------|


___________________________________________________________________________
8. Dai the Flu (i re-tabbed the intro and chorus, the rest is the same as before)

Dropped Db Tuning

This is the Intro and Chorus (listen close and you'll know what i mean)
Eb|----------------------------------------------------------------------|
Bb|-------------------------------------12-12-12-12-12-12-12-12-12-12----|
Gb|-9-9-8-9-9-8-9-8--11-11-11-11-11-11--11-11-11-11-11-11-11-11-11-11----|
Db|-9-9-8-9-9-8-9-8--9--9--9--9--9--9---9--9--9--9--9--9--9--9--9--9-----|
Ab|-7-7-6-7-7-6-7-6------------------------------------------------------|
Db-----------------------------------------------------------------------|

end with:

|------|
|------|
|------|
|--11--|
|---9--|
|------|

Bridge

|-------------------------------------------------------------|
|-------------------------------------------------------------|
|--------------------------------------------5-5-5-5-5-5-5-5--|
|--2-2-2-2--2-2-2-5-5-5-5--5-5-6-6-6-6--6-6--5-5-5-5-5-5-5-5--|
|--2-2-2-2--2-2-2-5-5-5-5--5-5-6-6-6-6--6-6--3-3-3-3-3-3-3-3--|
|--2-2-2-2--2-2-2-5-5-5-5--5-5-6-6-6-6--6-6-------------------|

|-----------------|---------------|
|-----------------|---------------|
|-----------------|---------------|
|-----------------|--5-5-5-6-6-6--|
|-----------------|--5-5-5-6-6-6--|
|--2-2-2-2-2-2-2--|--5-5-5-6-6-6--|

Outro

|----------------------------------------------------------|
|----------------------------------------------------------|
|------------------------------------------5-5-5-5-5-5-5---|
|--2-2-2-2-2-2-2-5-5-5-5-5-5-6-6-6-6-6-6-5-5-5-5-5-5-5-5---|
|--2-2-2-2-2-2-2-5-5-5-5-5-5-6-6-6-6-6-6-3-3-3-3-3-3-3-3---|
|--2-2-2-2-2-2-2-5-5-5-5-5-5-6-6-6-6-6-6-------------------|

Later on in the song he plays this an octave higher.
|-------------------------|
|-------------------------|
|--//9--//12--//13--//17--|
|-------------------------|
|--//7--//10--//11--//15--|
|-------------------------|
_____________________________________________________________________________
9. Headup
---(no name! people, take credit for your tabs!)
Head Up Tab by Deftones, www.Ultimate-Guitar.Com

Easy song to learn

Intro: After distortion

Eb-------------------------|
Bb-------------------------|
Gb-------------------------| X1
Db-------------------------|
Ab-------------------------|
Db--3--2-0-2-0-2-0-2-0-2-3-|

Riff 1: After intro
Eb-------------------------|
Bb-------------------------|
Gb-------------------------| X8
Db--3--2-0-2-0-2-0-2-0-2---|
Ab--3--2-0-2-0-2-0-2-0-2---|
Db--3--2-0-2-0-2-0-2-0-2---|

Short Part
Eb-------------------------|
Bb-------------------------|
Gb-------------------------| X4
Db-------------------------|
Ab-------------------------|
Db--3-2-0-2-0-2-0-2-0-2----|

Riff 2:
Eb-------------------------|
Bb-------------------------|
Gb-------------------------| X8
Db--3--2-0-2-0-2-0-2-0-2---|
Ab--3--2-0-2-0-2-0-2-0-2---|
Db--3--2-0-2-0-2-0-2-0-2---|

Chorus:
Eb-------------------------------------------|
Bb-------------------------------------------|
Gb-------------------------------------------| X4
Db--9-9-9-10^10-10^11-11^12-12-9-9--X-X-X-3--|
Ab--9-9-9-10^10-10^11-11^12-12-9-9--X-X-X-3--|
Db--9-9-9-10^10-10^11-11^12-12-9-9--X-X-X-3--|

Short One again....
Eb-------------------------|
Bb-------------------------|
Gb-------------------------| X2
Db-------------------------|
Ab-------------------------|
Db--3-2-0-2-0-2-0-2-0-2----|

Riff 3:
Eb-------------------------|
Bb-------------------------|
Gb-------------------------| X8
Db--3--2-0-2-0-2-0-2-0-2---|
Ab--3--2-0-2-0-2-0-2-0-2---|
Db--3--2-0-2-0-2-0-2-0-2---|

Chorus again...:
Eb-------------------------------------------|
Bb-------------------------------------------|
Gb-------------------------------------------| X4
Db--9-9-9-10^10-10^11-11^12-12-9-9--X-X-X-3--|
Ab--9-9-9-10^10-10^11-11^12-12-9-9--X-X-X-3--|
Db--9-9-9-10^10-10^11-11^12-12-9-9--X-X-X-3--|

Break: let this one ring, and maybe
bend it a bit, sounds ok
Eb--------------------------|
Bb--------------------------|
Gb--------------------------|
Db--3-----------------------|
Ab--3-----------------------|
Db--3-----------------------|

Heavy Riff: "When you walk into this world"
Eb--------------------------|
Bb--------------------------|
Gb--------------------------| X8
Db--2-2-2-2-2--7--3-3-3-3---|
Ab--2-2-2-2-2--7--3-3-3-3---|
Db--2-2-2-2-2--7--3-3-3-3---|

Last Riff:"Head up, head up, head up"
Eb--------------------------|
Bb--------------------------|
Gb--------------------------| X8
Db--3--2-0-2-0-2-0-2-0-2----|
Ab--3--2-0-2-0-2-0-2-0-2----|
Db--3--2-0-2-0-2-0-2-0-2----|

End on this:
Eb--------------------------|
Bb--------------------------|
Gb--------------------------|
Db--3-----------------------|
Ab--3-----------------------|
Db--3-----------------------|
_____________________________________________________________________________
10. Mx
---
SONG:MX
BY:DEFTONES
ALBUM:AROUND THE FUR
TUNING:DROPED D AND HALF STEP DOWN.
TABBED BY joshtonkin

played with distorted electric guitar.

   INTRO RIFF   [fig 1]
1-------------------------------|
2-------------------------------|
3-------------------------------|
4-1----0---0---3--4--4----------|
5-1----0---0---3--4--4----------|
6-1----0---0---3--4--4----------|

END INTRO  [fig 2]

1------------------|
2------------------|
3------------------|
4-2--2--2--1--1--1-|
5-2--2--2--1--1--1-|
6-2--2--2--1--1--1-|
VERSE RIFF   [fig 3]

1-----------------------------|
2-----------------------------|
3-----------------------------|
4--4---4---5---4--------------|
5--4---4---5---4--------------|
6--4---4---5---4--------------|


CHOURUS RIFF [fig 4]

1----------------------------|
2----------------------------|
3----------------------------|
4-4-4-4-4---4-4-4-4----------|
5-4-4-4-4---4-4-4-4----------|
6-4-4-4-4---4-4-4-4----------|
chourus continued
1--------------------------------|
2--------------------------------|
3--------------------------------|
4-4-4-4-4---4-4-4-4--4-5--5-8----|
5-4-4-4-4---4-4-4-4--4-5--5-8----|
6-4-4-4-4---4-4-4-4--4-5--5-8----|
_____________________________________________________________________________
(hidden track) - Damone
---
Song: Damone  (Hidden Song)
Band: Deftones
Album: Around the Fur
Transcriber: Doug McKenney
Tuning:  Db-Ab-Db-Gb-Bb-Eb  (1/2 step drop d)

Intro
------------------------------------------------------------|
------------------------------------------------------------|
--6--7--2--3------------------------------------------------| Sorry, you
--6--7--2--3------------------------------------------------| can figure out
--4--5--0--1------------------------------------------------| the rhythm.
------------------------------------------------------------|

Verse
----------------------------------------------------------------|
----------------------------------------------------------------|
--10-\----------------------------------------------------------|
---------0------------------------------------------------------|
-- 8--\--0------------------------------------------------------|
---------0------------------------------------------------------|

Pre Chorus Riff 1
------------------------------------------------------------|
------------------------------------------------------------|
--2--3------------------------------------------------------|
--2--3------------------------------------------------------|
--0--1------------------------------------------------------|
------------------------------------------------------------|

Pre Chorus Riff 2  (on every fourth time of Riff 1)
-------------------------------------------------------------|
-------------------------------------------------------------|
--2--3--\--5-------------------------------------------------|
--2--3--\--5-------------------------------------------------|
--0--1--\--3-------------------------------------------------|
-------------------------------------------------------------|

Chorus
------------------------------------------------------------|
------------------------------------------------------------|
--6--7--2--3------------------------------------------------|
--6--7--2--3------------------------------------------------|
--4--5--0--1------------------------------------------------|
------------------------------------------------------------|


Bridge
----------------------------------------------------------------|
----------------------------------------------------------------|
--6-^-----------------------------------------------------------|
--6-----0-------------------------------------------------------|
--4-----0-------------------------------------------------------|
--------0-------------------------------------------------------|

Here s how it goes

Intro   x 2
Verse    x 4
Pre Chorus Riff 1  x 2
Verse   x 4
Pre Chorus Riff 1  x 3
Pre Chorus Riff 2  x 1
Chorus  x 2
Verse   x 4
Pre Chorus Riff 1 x 3
Pre Chorus Riff 2 x 1
Chorus  x 2
Bridge   x 4
Verse   x 4
Pre Chorus Riff 1  x 3
Pre Chorus Riff 2  x 1
Chorus  x 4
Bridge  x 4
_____________________________________________________________________________
Comments