Deftones - Around The Fur Chords & Tabs

 

Around The Fur Chords & Tabs

Deftones Chords & Tabs

Version: 2 Type: Tab 0 ratings
1 star 2 stars 3 stars 4 stars 5 stars
comments

Around The Fur Tab

Deftones - Around The Fur
Tuning-DADGBE

Album - Around The Fur

The Verse Is 
E----------------------------
B----------------------------
G----------------------------
D----------------------------
A---------5-5-5-3-3-3--------
D-0-0-0-0-------------6-6-6--

The Chorus Is
E------------------------------------
B--3-333-----------------------------
G--2-222-----------------------------
D--0-000-3-3-3-3-4-4-4-4--6-6-6-6-6-6
A--0-000-3-3-3-3-4-4-4-4--4-4-4-4-4-4
D--0-000-3-3-3-3-4-4-4-4-------------
[ Tab from: http://www.guitartabs.cc/tabs/d/deftones/around_the_fur_tab_ver_2.html ]
That Little Fill Where Chino is singing "around the fur"
E-------------------------------------
B-------------------------------------
G-------------------------------------
D--------4----------------------------
A-----------6-4-5---------------------
D---0--6-----------6------------------

Outro
E-------------------------------------
B-------------------------------------
G-------------------------------------
D-0-0-0-0-0-0-0-0-5-5-5-5-6-6-6-------
A-0-0-0-0-0-0-0-0-3-3-3-3-6-6-6-------
D-0-0-0-0-0-0-0-0---------6-6-6-------
Comments