Deftones - 7 Words Chords & Tabs

 

7 Words Chords & Tabs

Deftones Chords & Tabs

Version: 6 Type: Tab 0 ratings
1 star 2 stars 3 stars 4 stars 5 stars
comments

7 Words Tab

   
Artist: Deftones
Song:  "7 words"
Album: Adrenaline 1995

Autor: Picardi Simone   I've seen stef live and is 100% correct. 

spiders82@hotmail.com

Legenda:

b  = Bend
-  = Palm Mute
/  = Slide


-Standard Tuning-


Intro & Verse 
|----------------------------------------------------|
|----------------------------------------------------|
|-9-9-9-9-9-9-9-9-9-9-10-10-10-10-10-10-10-10-10-10--|
|-9-9-9-9-9-9-9-9-9-9-10-10-10-10-10-10-10-10-10-10--|
|-7-7-7-7-7-7-7-7-7-7--8--8--8--8--8--8--8--8--8--8--|
|-0-0-0-0-0-0-0-0-0-0--0--0--0--0--0--0--0--0--0--0--|



 Chorus
|-0-0-0-0-0-0-0-0-|
|-0-0-0-0-0-0-0-0-|
|-0-0-0-0-0-0-0-0-|
|-0-0-0-0-0-0-0-0-|
|-0-0-0-0-0-0-0-0-|
|-0-0-0-0-0-0-0-0-|


|---------------------------------------|
|---------------------------------------|
|-------10-10-10-10-10-10-10-10-10-10---|x3
|-9-9----x--x--x--x--x--x--x--x--x--x---|
|-7-7---8b-8b-8b--8--8--8--8--8--8--8---|
|-0-0-----------------------------------|

|---------------------------------------|
|-------11-11-11-11-11-11-11-11-11-11---|
|--------x--x--x--x--x--x--x--x--x--x---|x1
|-9-9---8b-8b-8b--8--8--8--8--8--8--8---|
|-7-7-----------------------------------|
|-0-0-----------------------------------|

|---------------------------------------|
|---------------------------------------|
|-------10-10-10-10-10-10-10-10-10-10---|x3
|-9-9----x--x--x--x--x--x--x--x--x--x---|
|-7-7---8b-8b-8b--8--8--8--8--8--8--8---|
|-0-0-----------------------------------|

|---------------------------------------|
|-------12-12-12-12-12-12-12-12-12-12---|
|--------x--x--x--x--x--x--x--x--x--x---|x1
|-9-9---8b-8b-8b--8--8--8--8--8--8--8---|
|-7-7-----------------------------------|
|-0-0-----------------------------------|


Break
|----------------------|
|----------------------|
|----------------------|
|----------------------|
|-2--------0-0-0-0-0-0-|
|-0--------0-0-0-0-0-0-|
           - - - - - -
[ Tab from: http://www.guitartabs.cc/tabs/d/deftones/7_words_tab_ver_6.html ]
|--------------------------------------------------|
|--------------------------------------------------|
|-------------------7--------------------------7---|
|-------------------7--------------------------7---|
|-5h7-----8-8/7-7-7-5/8----5h7-----8-8-7-7-7-7/5-8-|
|-5h7-0-0-6-6/5-5-5-5/6----5h7-0-0-6-6-5-5-5-5/5-6-|
      - -		       - -


 Chorus in(3:23)

|---------------------------------------|
|---------------------------------------|
|-------10-10-10-10-10-10-10-10-10-10---|x1
|-9-9----x--x--x--x--x--x--x--x--x--x---|
|-7-7---8b-8b-8b--8--8--8--8--8--8--8---|
|-0-0-----------------------------------|

|---------------------------------------|
|-------11-11-11-11-11-11-11-11-11-11---|
|--------x--x--x--x--x--x--x--x--x--x---|x1
|-9-9---8b-8b-8b--8--8--8--8--8--8--8---|
|-7-7-----------------------------------|
|-0-0-----------------------------------|

|---------------------------------------|
|---------------------------------------|
|-------10-10-10-10-10-10-10-10-10-10---|x1
|-9-9----x--x--x--x--x--x--x--x--x--x---|
|-7-7---8b-8b-8b--8--8--8--8--8--8--8---|
|-0-0-----------------------------------|

|---------------------------------------|
|-------12-12-12-12-12-12-12-12-12-12---|
|--------x--x--x--x--x--x--x--x--x--x---|x1
|-9-9---8b-8b-8b--8--8--8--8--8--8--8---|
|-7-7-----------------------------------|
|-0-0-----------------------------------|

|---------------------------------------|
|---------------------------------------|
|-------10-10-10-10-10-10-10-10-10-10---|x3
|-9-9----x--x--x--x--x--x--x--x--x--x---|
|-7-7---8b-8b-8b--8--8--8--8--8--8--8---|
|-0-0-----------------------------------|

|---------------------------------------|
|-------12-12-12-12-12-12-12-12-12-12---|
|--------x--x--x--x--x--x--x--x--x--x---|x1
|-9-9---8b-8b-8b--8--8--8--8--8--8--8---|
|-7-7-----------------------------------|
|-0-0-----------------------------------|


end
|---------------|
|---------------|
|------6--------|
|------6--------|
|-4-4--4--3-3-3-|
|-2-2--4--1-1-1-|


Please Rate!
Comments