Deftones - 7 Words Chords & Tabs

 

7 Words Chords & Tabs

Deftones Chords & Tabs

Version: 5 Type: Tab 0 ratings
1 star 2 stars 3 stars 4 stars 5 stars
comments

7 Words Tab

   
Deftones	7 Words
E-A-D-G-B-E

Couplet
|------------------------------------------------------------------------------------------------------|
|------------------------------------------------------------------------------------------------------|
|------------------------------------------------------------------------------------------------------|
|-9--9-9--9--9-9-9-9---910--101010-1010-10101010--9--9-9-9--9-9--9-9--9--9--10-10-10--1010--10101010~~-|
|-7--7-7--7--7-7-7-7---7-8---8-8-8--8-8--8-8-8-8--7--7-7-7--7-7--7-7--7--7---8--8--8---8-8---8-8-8-8~~-|
|-0--0-0--0--0-0-0-0---0-0---0-0-0--0-0--0-0-0-0--0--0-0-0--0-0--0-0--0--0---0--0--0---0-0---0-0-0-0~~-|

|---------------------------------------------------------------------------0-0~~-0-0~~-0~~-|
|---------------------------------------------------------------------------0-0~~-0-0~~-0~~-|
|---------------------------------------------------------------------------0-0~~-0-0~~-0~~-| dernière fois
|-9--9-9--9--9-9-9-9---910--101010-1010-10101010--9--9-9-9--9-9--9-9--9--9--0-0~~-0-0~~-0~~-|
|-7--7-7--7--7-7-7-7---7-8---8-8-8--8-8--8-8-8-8--7--7-7-7--7-7--7-7--7--7--0-0~~-0-0~~-0~~-|
|-0--0-0--0--0-0-0-0---0-0---0-0-0--0-0--0-0-0-0--0--0-0-0--0-0--0-0--0--0--0-0~~-0-0~~-0~~-|
[ Tab from: http://www.guitartabs.cc/tabs/d/deftones/7_words_tab_ver_5.html ]
Refrain
|------------------------------------------------------------------------------------------------------------------|
|-------------------------------------------------------------------------------------------------/11~-1111111111~\|
|-----------/10~-1010101010~\------------/10~-1010101010~\-----------/10~-1010101010~\-----------------------------|
|-9~~--9~~---------------------9~~--9~~--------------------9~~--9~~---------------------9~~--9~~-------------------|
|-7~~--7~~---------------------7~~--7~~--------------------7~~--7~~---------------------7~~--7~~-------------------|
|-0~~--0~~---------------------0~~--0~~--------------------0~~--0~~---------------------0~~--0~~-------------------|

3e fois du final
|------------------------------------------------------------------------------------------------------------------|
|----------------------------------------/11~-1111111111~\----------------------------------------/12~-1212121212~\|
|-----------/10~-1010101010~\----------------------------------------/10~-1010101010~\-----------------------------|
|-9~~--9~~---------------------9~~--9~~--------------------9~~--9~~---------------------9~~--9~~-------------------|
|-7~~--7~~---------------------7~~--7~~--------------------7~~--7~~---------------------7~~--7~~-------------------|
|-0~~--0~~---------------------0~~--0~~--------------------0~~--0~~---------------------0~~--0~~-------------------|

Pont
|-------------------------------------------------------|
|-------------------------------------------------------|
|-------------------------------------------------------|
|-9-----------------------------------------------------|
|-7-----------------------------------------2-1-1-2-1-1-|
|-0-----------------------------------------0-0-0-0-0-0-|
                                                                                     ................
Passage Heavy
|---------------------------------|
|---------------------------------|
|---------------------------------|
|-7/9-x-x-8~--8-7~--7-7-7-7-8-8-8-|
|-7/9-x-x-8~--8-7~--7-7-7-7-8-8-8-|
|-5/7-x-x-6~--6-5~--5-5-5-5-6-6-6-|

Outro
|-----------------------------|
|-----------------------------|
|-----------------------------|
|-0h5-4~-4~~~--6~~~~--3--3--3-|
|-0h5-4~-4~~~--4~~~~--3--3--3-|
|-0h3-2~-2~~~--0~~~~--1--1--1-|
Comments