Default - Wasting My Time Chords & Tabs

 

Wasting My Time Chords & Tabs

Default Chords & Tabs

Version: 8 Type: Tab 0 ratings
1 star 2 stars 3 stars 4 stars 5 stars
comments

Wasting My Time Tab

WASTING MY TIME by Default
Tabbed By isthatmycow

there are many ways to play this, but here's the way that I find easiest to play it
(regular tuning)

intro
|----0-------5-------0-------5p0-------0-------5-------0---
|--3-----3-----3---3-----3-------3---3-----3-----3---3-----
|--2---4---------4-2---4-----------4-2---4---------4-2---4-
|------5---5-----------5---5-------------5---5-----------5-
|----------------------------------------------------------
|----------------------------------------------------------

1st verse (repeat 2x)
|---0-------5-------0-------5-------0-------5-------0------
|-3---3-3-----3---3---3-3-----3---3---3-3-----3---3---3----
|-2---4---------4-2---4---------4-2---4---------4-2---4----
|-----5---5-----------5---5-----------5---5-----------5----
|----------------------------------------------------------
|----------------------------------------------------------

1st chorus
|----------------------------------------------------------
|----------------------------------------------------------
|-----------------------------------4---4------2-----4---4-
|-5---5------2-0---5---5------2-0---4---4--2h4---4---4---4-
|-5---5--0h2-----0-5---5--0h2-----0-2---2----------2-2---2-
|-3---3------------3---3-----------------------------------

|----------------------------------------------------------
|--------------------------------------------3x9-----------
|-----2--------------------------------------3x9-----------
|-2h4---4---5---5------2-0---5---5-----2-0---3x9-----------
|---------2-5---5--0h2-----0-5---5-0h2-----0-0x9-----------
|-----------3---3------------3---3-------------------------

rhythm
|----0-------5-------0-------5p0-------0-------5-------0---
|--3---3-3-----3---3---3-3-------3---3---3-3-----3---3---3-
|--2---4---------4-2---4-----------4-2---4---------4-2---4-
|------5---5-----------5---5-------------5---5-----------5-
|----------------------------------------------------------
|----------------------------------------------------------

2nd verse(same as rhythm, repeat twice)

2nd chorus
|----------------------------------------------------------
|----------------------------------------------------------
|-----------------------------------4---4------2-----4---4-
|-5---5------2-0---5---5------2-0---4---4--2h4---4---4---4-
|-5---5--0h2-----0-5---5--0h2-----0-2---2----------2-2---2-
|-3---3------------3---3-----------------------------------

|----------------------------------------------------------
|----------------------------------------------------------
|-----2--------------------------------------4---4------2--
|-2h4---4---5---5------2-0---5---5-----2-0---4---4--2h4---4
|---------2-5---5--0h2-----0-5---5-0h2-----0-2---2---------
|-----------3---3------------3---3-------------------------

|-------------------------
|--------------------3x12-
|---4---4------2-----3x12-
|---4---4--2h4---4---3x12-
|-0-2---2----------2-0x12-
|-------------------------
[ Tab from: http://www.guitartabs.cc/tabs/d/default/wasting_my_time_tab_ver_8.html ]
lead
|----------------------------------------------------------
|----------------------------------------------------------
|-4p2------------------------------------------------------
|-----2h4-2p0-----0-2-4-2p0-2p0-0-4-4-4-5-4h5p4------------
|-------------2p0--------------------------------5-4-5-2---
|----------------------------------------------------------

|-----------------------------------------------8^9-71/2^7-
|----------------------------------------------------------
|--------------------------------7-9-11\12-11--------------
|---------5h7-7-7-5/4-5/4-4\7--0---------------------------
|-4-2-0----------------------------------------------------
|----------------------------------------------------------

|-5-3-2\3-3\5-2\3/2-----
|-------------------0-3-
|-----------------------
|-----------------------
|-----------------------
|-----------------------

rhythm x2
"i see you waitin..."

3rd chorus
|----------------------------------------------------------
|----------------------------------------------------------
|-----------------------------------4---4------2-----4---4-
|-5---5------2-0---5---5------2-0---4---4--2h4---4---4---4-
|-5---5--0h2-----0-5---5--0h2-----0-2---2----------2-2---2-
|-3---3------------3---3-----------------------------------

|----------------------------------------------------------
|----------------------------------------------------------
|-----2--------------------------------------4---4------2--
|-2h4---4---5---5------2-0---5---5-----2-0---4---4--2h4---4
|---------2-5---5--0h2-----0-5---5-0h2-----0-2---2---------
|-----------3---3------------3---3-------------------------
 begins strumming 4-4-2 and 5-5-3 w/the beat ^
|----------------------------------------------------------
|----------------------------------------------------------
|---4---4--------------------------------------------4---4-
|---4---4------------5---5------2-0---5---5----------4---4- 
|-0-2---2------------5---5--0h2-----0-5---5----------2---2-
|--------------------3---3------------3---3----------------
      
|--------------------------------
|----------------------------3x9-
|----------------------------3x9-
|--5---5---------5---5-------3x9-
|--5---5---------5---5-------0x9-
|--3---3---------3---3-----------

extro
|----0-------5-------0-------5p0-------0-------5-----------0
|--3-----3-----3---3-----3-------3---3-----3-----3-------3--
|--2---4---------4-2---4-----------4-2---4---------4---2----
|------5---5-----------5---5-------------5---5-------0------
|-----------------------------------------------------------
|-----------------------------------------------------------

|-----3-
|-3---3-
|---2-4-
|-----5-
|-------
|-------

remember, this song is played with lead and rhythm guitars, so their are a few TINY riffs in parts of the song, but they are hardly noticable.....this tab is the best way to play this song with just 1 guitar

anyways, 

THANKS, and hope you enjoy the tab
Comments