Default - Wasting My Time Chords & Tabs

 

Wasting My Time Chords & Tabs

Default Chords & Tabs

Version: 3 Type: Tab 0 ratings
1 star 2 stars 3 stars 4 stars 5 stars
comments

Wasting My Time Tab

   

Wasting My Time-Default
The Fallout

Drop D
D A D G B E

fade in with D note feedback

Riff A

e----0-----------5-----------0-----------5p0--------
b-3-----3---3-------3-0--3------3---3--------3-0----
g-2-----0------0---------2-------------0------------
d-0----------------------0--------------------------
a---------------------------------------------------
d---------------------------------------------------

e----0-----------5-----------0----------------------
b-3-----3---3-------3-0--3------3-------------------
g-2-----0------0---------2------0-------------------
d-0----------------------0--------------------------
a---------------------------------------------------
d---------------------------------------------------

Verses: Riff A1

e----0-----------5----------0-----------5-----------
b-3-----3---3-------3-0--3-----3---3-------3-0------
g-2-----0------0---------2-----0------0-------------
d-0-----0----------------0-----0--------------------
a-0-----x----------------0-----x--------------------
d-0-----5----------------0-----5--------------------

e----0-----------5----------0-----------------------
b-3-----3---3-------3-0--3-----3--------------------
g-2-----0------0---------2-----0--------------------
d-0-----0----------------0-----0--------------------
a-0-----x----------------0-----x--------------------
d-0-----5----------------0-----5--------------------

Chorus:

e---------------------------------------------------
b---------------------------------------------------
g---------------------------------------------------
d-5---5---5---------------5---5---5-----------------
a-5---5---5----0-5-7--5-0-5---5---5----0-5-7--5-0---
d-5---5---5---------------5---5---5-----------------
[ Tab from: http://www.guitartabs.cc/tabs/d/default/wasting_my_time_tab_ver_3.html ]
e---------------------------------------------------
b---------------------------------------------------
g---------------------------------------------------
d-9---9---9---------------9---9---9-----------------
a-9---9---9---0-9-12-9-0--9---9---9---0-9-12-9-0----
d-9---9---9---------------9---9---9-----------------

e---------------------------------------------------
b---------------------------------------------------
g---------------------------------------------------
d-5---5---5---------------5---5---5-----------------
a-5---5---5----0-5-7--5-0-5---5---5----0-5-7--5-0---
d-5---5---5---------------5---5---5-----------------

                                   2nd time only
e---------------------------------------------------
b---------------------------------------------------
g---------------------------------------------------
d-7--7--7--7--7--7--7--7--7-----------9-------------
a-7--7--7--7--7--7--7--7--7---------------7-9-7-----
d-7--7--7--7--7--7--7--7--7-------------7-------7-9-

Solo: w/ wah

e-----------------------------------------------------------------
b-----------------------------------------------------------------
g-----------------------------------------------------------------
d-----------------------------------------------------------------
a-5--5-7---5--5-7-7-5-7-5-5-5-/9--9/10-10-10-9/10-9-------0-------
d-----------------------------------------------------------------

e-----------------------------------------------------------------
b-----------------------------------------------------------------
g-----------------------------------------------------------------
d-------------------------------5-7-7-7-7-7-5-4-5-4-7-----7----7--
a-4---5--2-----0-2-4---2---0--------------------------------------
d-----------------------------------------------------------------

e----------------------------7b--rb-------------------------------
b-------------7-8-7~~~~~-7-8--------10--8--7-8-8b-7-7br-----------
g-7-7-x-9---9---------------------------------------------7-------
d-------------------------------------------------------9---------
a-----------------------------------------------------------------
d-----------------------------------------------------------------

that’s it
i saw default live here in peterborough
and they were pretty good

trevor jones
timmy91199@yahoo.ca
Comments