Default - Wasting My Time Chords & Tabs

 

Wasting My Time Chords & Tabs

Default Chords & Tabs

Version: 1 Type: Tab 0 ratings
1 star 2 stars 3 stars 4 stars 5 stars
comments

Wasting My Time Tab

Artist: Default
Song: wasting my time
Author: Chris Berry (Hbep2002@aol.com)


This sounds verbatim to my ears, but i did not get this out of a book so it might not be 100% correct.

Listen for timing
Opening:
E-----0--------------5--------------0------------5-0------|
B--3-----3-----3--------3-0------3-----3----3--------3-0--|
G--2-----0-------2---------------2-----0------2-----------|
D---------------------------------------------------------|
A---------------------------------------------------------|
E---------------------------------------------------------|

during singing, you can either play the above, or strum a D then G chords.
[ Tab from: http://www.guitartabs.cc/tabs/d/default/wasting_my_time_tab.html ]
Chorus:
                           x2                          x2                           x2
E----------------------------|---------------------------|----------------------------|--------------------|
B----------------------------|---------------------------|----------------------------|--------------------|
G--4--4-x-x-4--4-------------|--8--8-x-x--8--------------|--4--4-x-x-4--4-------------|--6-6-6-6-6-6-6-6-6-|
D--5--5-x-x-5--5-------------|--9--9-x-x--9-------7------|--5--5-x-x-5--5-------------|--7-7-7-7-7-7-7-7-7-|
A--5--5-x-x-5--5---0h5h7--5p0|--9--9-x-x--9---7h9---9-7--|--5--5-x-x-5--5--0h5h7--5p0-|--7-7-7-7-7-7-7-7-7-|
E--3--3-x-x-3--3-------------|--7--7-x-x--7--------------|--3--3-x-x-3--3-------------|--5-5-5-5-5-5-5-5-5-|

back to intro...rest of the song is just repeated from above. Listen and repeat.

The solo is in another archive, it sound right so im not gonna bother with it.

The ending

E--------0---------3-----|
B------3---3-------3-----|
G----2-------2-----2-----|
D--0---------------0-----|
A------------------------|
E------------------------|
Comments