Default - Wasting My Time Chords & Tabs

 

Wasting My Time Chords & Tabs

Default Chords & Tabs

Version: 1 Type: Bass Tab 0 ratings
1 star 2 stars 3 stars 4 stars 5 stars
comments

Wasting My Time Bass Tab

Wasting My Time Bass tabs


Verse 1


G-----------------------11----------------------------------12----12--
D-------------------/12---12----------------------------/12----12-----
A-5-0---0-5-0--0-5------------5-0---0-5-0---0-5-0---0-5----------------
E-----3-------3-------------------3-------3-------3--------------------

G---------------------------------------------------------------------
D-12------------------------------------------------------------------
A----14\--5-0---------------------------------------------------------
E-------------3-------------------------------------------------------



Chorus

G---------------------------------------------------------------------
D---------------------------------------------------------------------
A-------2-2-0----0-0-0-0-0-0-0-0-0------------------------------------
E--3-3--------3-------------------------------------------------------


Pre-Verse


G-----------------------11--------------------------------------------
D-------------------/12---12------------------------------------------
A-5-0---0-5-0--0-5-----------0-5-0-------------------------------------
E-----3-------3---------------------3------------------------------------

Verse2

G-----------------------11----------------------------------12----12--
D-------------------/12---12----------------------------/12----12-----
A-5-0---0-5-0--0-5-----------0-5-0---0-5-0---0-5-0---0-5--------------
E-----3-------3--------------------3-------3-------3------------------

G---------------------------------------------------------------------
D-12------------------------------------------------------------------
A----14\--5-0---------------------------------------------------------
E-------------3-------------------------------------------------------


Chorus 2
[ Tab from: http://www.guitartabs.cc/tabs/d/default/wasting_my_time_btab.html ]
G---------------------------------------------------------------------
D---------------------------------------------------------------------
A--3/5\3-------2-2-0---2-2--0-0-0-0-0-0-0-0-0-------------------------
E---------3-3--------3------------------------------------------------

Solo


G---------11-------------14-------------------------------------------
D--0--/12----12--0--/12------14---12h14p12----------------------------
A-------------------------------------------4-5p4-2-4-2-0-------------
E---------------------------------------------------------------------

G---------11-------------14-------------------------------------------
D--0--/12----12--0--/12------14---12h14p12----------------------------
A-------------------------------------------4-5---4-2-0---------------
E-----------------------------------------------3---------------------

G-----------------11--------------------------------------------------
D-------------/12-----------------------------------------------------
A--5-0---0-3----------------------------------------------------------
E------3--------------------------------------------------------------

Chorus 3-end
(this isntít the actual amount of notes played, but they are the right notes)

G---------------------------------------------------------------------
D---------------------------------------------------------------------
A-------2-2-0----2-2-2-2-2-2-2-2-2-2-2-2------------------------------
E--3-3--------3---------------------------3-3-3-3-3-3-3-3-3-3---------


G---------------------------------------------------------------------
D---------------------------------------------------------------------
A-2-2-2-2-2-2-2-2-2--------------------------------0-0-0-0-0-0-0-0-0--
E--------------------3-3-3-3-3-3-3-3-3-3-3-3-3-3-3--------------------
Comments