Default - Throw It All Away Chords & Tabs

 

Throw It All Away Chords & Tabs

Default Chords & Tabs

Version: 2 Type: Bass Tab 0 ratings
1 star 2 stars 3 stars 4 stars 5 stars
comments

Throw It All Away Bass Tab

   
-----------------------------------------------------------------------------
			     THROW IT ALL AWAY - Default
-----------------------------------------------------------------------------
Bassist: Dave Benedict
Tabbed By : Warren Bauman 
e-mail: wab1739@hotmail.com

I haven't seen this tabbed properly, this should be closer

Tuning: Drop D, D A D G

Intro:

G|------------------------------------------------------------------------|
D|------------------------------------------------------------------------|
A|-----3333-1h3------------3333-1h3---------------------------------------|
D|-8\-----------6666-8888-----------6666-8888-----------------------------|

Verse:

G|---------------------------------------------------------------------|
D|---------------------------------------------------------------------|  X2
A|-3333-1h3~-1h3~-1h3~ ------------------------------------------------|
D|-------------------------6666-66/8888-88-----------------------------|

Pre Chorus:

G|------------------------------------------------------------------------|
D|------------------------------------------------------------------------|
A|-3-1--------------3-1---------------------------------------------------|
D|-----66-11111-33------66--11111111--------------------------------------|

Chorus:
[ Tab from: http://www.guitartabs.cc/tabs/d/default/throw_it_all_away_btab_ver_2.html ]
G|--------------------------------------------------------------------------|
D|--------------------------------------------------------------------------|
A|3\1-----3\1-----3\1-----3\1------33------1-11111111---------88888888-0h3~-|
D|---11330---11330---11330---11330-----11-------------66666666--------------|

Repeat all again, then into interlude 2:07:

G|---------------------12h10-10-12------------------------------------------|
D|---------------------------------10---------------------------------------|
A|-3333-----------3333----------------3333------------3~33------------------|
D|------6666/8888---------------------------6666/8888------6666/8888--------|

Pre Chorus again once:

Then Last Chorus: just double first half

G|----------------------------------------------------------|
D|----------------------------------------------------------| (X2) 
A|--3\1-----------3\1-----------3\1-----------3\1-----------|
D|------1-1-3-3-0-----1-1-3-3-0-----1-1-3-3-0-----1-1-3-3-0-|

then end it with this

G|-----------------------------------------------------|
D|-----------------------------------------------------|
A|-3-3-----1-11111111---------------------3~-----------|
D|-----1-1-------------66666666-88888888\--------------|


| /  slide up
| \  slide down
| h  hammer-on
| ~  hold note

============================================================================
Comments