Default - Somewhere Chords & Tabs

 

Somewhere Chords & Tabs

Default Chords & Tabs

Version: 1 Type: Bass Tab

Somewhere Bass Tab

   
Band- Default
Song- Somewhere

Tuning: E,A,D,G

Intro / Verse:
G/---------------------|
D/---------------------|
A/---------------------|
E/-2-2-2-2-2-2-2-0-----|


Pre-Chorus:  ( have i seen u before..)
G/------------------------------------------------------------|
D/------------------------------------------------------------|
A/---------2--2----(2--)--------------------------------------|
E/-5--5------------(--0)--2-2-2-2-2-2-2-0--2-2-2-2-2-2-2-0----|
u gotta kinda listen closely for the notes in parenthesis.

[ Tab from: http://www.guitartabs.cc/tabs/d/default/somewhere_btab.html ]
Chorus:
G/----------------------------------------------------------------------------|
D/----------------------------------------------------------------------------|
A/-5--5--------------2---2--------------5--5---2--2--2--2---------------------|
E/--------5--5---5-----------2--2---2----------------------2--2--2--2---2-2---|


Break: (2:07)
G/---------------------------|
D/---------------------------|
A/---------------------------|
E/-2h5-2-0-2---2h5-2-0-2-----|


after the break play the chorus again at 2:26 and then play
the break again at 3:02 until the end of the song.