Default - Let You Down Chords & Tabs

 

Let You Down Chords & Tabs

Default Chords & Tabs

Version: 1 Type: Tab 0 ratings
1 star 2 stars 3 stars 4 stars 5 stars
comments

Let You Down Tab

   
Default - Let You Down
Tabbed By: tza
EMail: timmy91199@yahoo.ca
The Fallout

Drop D:
D A D G B E


Intro:

Fig. 1

e-----------------------------------------------------------------
b-----------------------------------------------------------------
g-6----6-----7----4-----2---------6----6-----7----4-----2---------
d-0----0-----0----0-----0---------0----0-----0----0-----0---------
a-0----0-----0----0-----0---------0----0-----0----0-----0---------
d-0----0--0--0----0--0--0---------0----0--0--0----0--0--0---------

Verses: Fig. 1 x2

Chorus:

e--------------------------------------------------------
b--------------------------------------------------------
g------------6----6----7----------------6----6----7------
d-9----9-----7----7----5-----9----9-----7----7----5------
a-5----5-----5----5----5-----5----5-----5----5----5------
d-5----5--5--5----5-5--5--5--5----5--5--5----5-5--5--0---

e--------------------------------------------------------
b--------------------------------------------------------
g-9----9-----7-------------7-7--9---9br---7--------------
d-0----0-----0-------------0-0--0---0-----0--------------
a-0----0-----0-------------------------------------------
d-0----0--0--0-------------------------------------------

Interlude:
[ Tab from: http://www.guitartabs.cc/tabs/d/default/let_you_down_tab.html ]
e-----------------------------------------------------------------
b-----------------------------------------------------------------
g-6----6-----4-------1-----1-----1--2------/4--2------------------
d-0----0--0--0-------0-----0----------------0--0------------------
a-x----x-----x----------------------------------------------------
d-7----7-----5----------2-----2-----------------------------------

last bar of chorus 2:

e--------------------------------------------------------
b--------------------------------------------------------
g-9----9-----7------------7-----7------------------------
d-0----0-----0------------0-----0------------------------
a-0----0-----0-------------------------------------------
d-0----0--0--0---------------0-----0--0--0--0--0--0--0---

Bridge: x2

e----------------------------------------------
b----------------------------------------------
g----------------------------------------------
d------12-------12------------12------12-------
a---10-------10----10-9----10------10----10-9--
d-9--------9--------9-9--9-------9--------9-9--

e---------------------------------------
b---------------------------------------
g---------------------------------------
d-----11-----11----------11-----11------
a---9------9----9-7----9------9----9-7--
d-7------7------7-7--7------7------7-7--

G5

e-----------------------------------------------------------------
b-----------------------------------------------------------------
g-----------------------------------------------------------------
d-7---5-5---x-5----5-5-5---2-2---x-2----0--0--0--0--0--7-7-7--5-5-
a-7---5-5---x-5----5-5-5---2-2---x-2----0--0--0--0--0--7-7-7--5-5-
d-7---5-5---x-5----5-5-5---2-2---x-2----0--0--0--0--0--7-7-7--5-5-


thatís about all

trevor jones
timmy91199@yahoo.ca
Comments