Default - Let You Down Acoustic Chords & Tabs

 

Let You Down Acoustic Chords & Tabs

Default Chords & Tabs

Version: 1 Type: Tab 0 ratings
1 star 2 stars 3 stars 4 stars 5 stars
comments

Let You Down Acoustic Tab

   
While this is the tab for the acoustic version I heard 
Default play on the radio, it works with the CD 
version as well.

Dropped "D" Tuning

Intro/Verses

E|0-0-0-0-0-------------------------|
B|2-2-3-0-3-------------------------|  
G|2-2-2-2-2-------------------------|
D|0-0-0-0-0-------------------------|
A|0-0-0-0-0-------------------------|
E|0-0-0-0-0-------------------------|

Chorus (A) Strumming  (D)

E|5---------------------------------|0---------------------------------|  
B|8---------------------------------|3---------------------------------|  
G|7---------------------------------|2---------------------------------|
D|5---------------------------------|0---------------------------------|
A|5---------------------------------|0---------------------------------|
E|5---------------------------------|0---------------------------------|

Fill 1

E|0-0-0--------------------0--------|
B|2-2-0----------2-2-2-2-3-3--------|
G|2-2-2--------------------2--------|
D|0-0-0-----------0-0-0----0--------|
A|0-0-0--------------------0--------|
E|0-0-0--------------------0--------|

Bridge

E|----------------------------------|----------------------------------|
B|----------------------------------|----------------------------------|
G|----------------------------------|----------------------------------|
D|9-9--9-9--9-9-9-9-9-9-9-9---------|9-9--9-9--9-9-9-9-9-9-9-9---------|
A|9-10-9-10-9-9-9-9-9-9-9-9---------|9-10-9-10-9-9-9-9-9-9-9-9---------|
E|9-9--9-9--9-9-9-9-9-9-9-9---------|9-9--9-9--9-9-9-9-9-9-9-9---------|
[ Tab from: http://www.guitartabs.cc/tabs/d/default/let_you_down_acoustic_tab.html ]
E|----------------------------------|----------------------------------|
B|----------------------------------|----------------------------------|
G|----------------------------------|----------------------------------|
D|7-7-7-7-7-7-7-7-7-7-7-7-7---------|7-7-7-7-7-7-7-7-7-7-7-7-7---------|
A|7-9-7-9-7-7-7-7-7-7-7-7-7---------|7-9-7-9-7-7-7-7-7-7-7-7-7---------|
E|7-7-7-7-7-7-7-7-7-7-7-7-7---------|7-7-7-7-7-7-7-7-7-7-7-7-7---------|

E|----------------------------------|----------------------------------|
B|----------------------------------|----------------------------------|
G|----------------------------------|----------------------------------|
D|9-9--9-9--9-9-9-9-9-9-9-9---------|9-9--9-9--9-9-9-9-9-9-9-9---------|
A|9-10-9-10-9-9-9-9-9-9-9-9---------|9-10-9-10-9-9-9-9-9-9-9-9---------|
E|9-9--9-9--9-9-9-9-9-9-9-9---------|9-9--9-9--9-9-9-9-9-9-9-9---------|

E|----------------------------------|----------------------------------|
B|----------------------------------|----------------------------------|
G|----------------------------------|----------------------------------|
D|7-7-7-7-7-7-7-7-7-7-7-7-7---------|7-7-7-7-7-7-7-7-7-7-7-7-7---------|
A|7-9-7-9-7-7-7-7-7-7-7-7-7---------|7-9-7-9-7-7-7-7-7-7-7-7-7---------|
E|7-7-7-7-7-7-7-7-7-7-7-7-7---------|7-7-7-7-7-7-7-7-7-7-7-7-7---------|

Sliding up and strumming

E|----------------------------------|-------------------------------0--|
B|----------------------------------|-------------------------------2--|
G|----------------------------------|-------------------------------3--|
D|7-ssss-12-12-12-12----12-ssss-5---|5-ssss-8-8-8-8--8-ssss-2-2-2-2-0--|
A|7-ssss-12-12-12-12----12-ssss-5---|5-ssss-8-8-8-8--8-ssss-2-2-2-2-0--|
E|7-ssss-12-12-12-12----12-ssss-5---|5-ssss-8-8-8-8--8-ssss-2-2-2-2-0--|

Song Pattern

Intro/Verse 1 X 5 times with Verse 1 starting on 2nd time
Chorus X 2 times
Fill 1
Verse 2 X 4 times
Chorus X 2 times
BridgeChorus X 3 times
Fill 1 ending with "D" Chord!!!!
Comments