Default - Deny Chords & Tabs

 

Deny Chords & Tabs

Default Chords & Tabs

Version: 4 Type: Tab 0 ratings
1 star 2 stars 3 stars 4 stars 5 stars
comments

Deny Tab

#----------------------------------PLEASE NOTE--------------------------------#
#This file is the author's own work and represents their interpretation of the#
#song. You may only use this file for private study, scholarship, or research.#
#-----------------------------------------------------------------------------#
#-- File created with Instab - http://www.pconline.com/~smcarey/instab.html --#
#-----------------------------------------------------------------------------#

Author/Artist: Default
Title: Deny
Album: The Fallout
Transcribed by: Matt B
Dropped D Tuning - DADGBE

---3---1------0---1-0---------------------------------------------------------
----------------------1-------------------------------------------------------
-----------------------------2---0------4---5-4-------------------------------
------------------------------------------------------------------------------
------------3---3-------------------------------------------------------------
-0---0---------------------3---3------5---5-----5-----------------------------
 PART 1 - Play Twice                                                          

---3---1-----------------0---1-0--------0---1-0-------------------------------
---------------------------------1--------------1-----------------------------
--------------2---0-----------------------------------------------------------
------------------------------------------------------------------------------
-----------------------3---3----------3---3-----------------------------------
-0---0------3---3-------------------------------------------------------------
 PART 2 - Play Four Times                                                     

------------------------------------------------------------------------------
------------------------------------------------------------------------------
-5-5\-7-7-7-7----5-5\-7-7-7-7----5-5\-7-7-7-7----5----------------------------
-5-5\-7-7-7-7----5-5\-7-7-7-7----5-5\-7-7-7-7----5----------------------------
-3-3\-5-5-5-5----3-3\-5-5-5-5----3-3\-5-5-5-5----3----------------------------
------------------------------------------------------------------------------
 PART 3 - Play Once                              Let last chord ring          

------------------------------------------------------------------------------
------------------------------------------------------------------------------
-12----10----7----5----2------------------------------------------------------
-12----10----7----5----2----0-------------------------------------------------
-10----8-----5----3----0----0-------------------------------------------------
----------------------------0-------------------------------------------------
 Pre Verse (Distorted) - Play Twice - Let last chord ring                     
[ Tab from: http://www.guitartabs.cc/tabs/d/default/deny_tab_ver_4.html ]
------------------------------------------------------------------------------
------------------------------------------------------------------------------
-7-7x----7-7x----10----10----5----5----5\-------------------------------------
-7-7x----7-7x----10----10----5----5----5\-------------------------------------
-5-5x----5-5x----8-----8-----3----3----3\-------------------------------------
------------------------------------------------------------------------------
 Verse (Distorted) - Play 4 Times                                             

------------------------------------------------------------------------------
------------------------------------------------------------------------------
------------------------------------------------------------------------------
------------------------------------------------------------------------------
------------------------------------------------------------------------------
------------------------------------------------------------------------------
 Chorus - Same as the Pre Verse - Play Four Times                             

------------------------------------------------------------------------------
------------------------------------------------------------------------------
------------------------------------------------------------------------------
------------------------------------------------------------------------------
------------------------------------------------------------------------------
------------------------------------------------------------------------------
 Play The Verse Four Times                                                    

------------------------------------------------------------------------------
------------------------------------------------------------------------------
------------------------------------------------------------------------------
------------------------------------------------------------------------------
------------------------------------------------------------------------------
------------------------------------------------------------------------------
 Play the Chorus Four Times                                                   

------------------------------------------------------------------------------
------------------------------------------------------------------------------
------------------------------------------------------------------------------
------------------------------------------------------------------------------
------------------------------------------------------------------------------
------------------------------------------------------------------------------
 INTERLUDE - Play Part 1 Four Times                                           

------------------------------------------------------------------------------
------------------------------------------------------------------------------
------------------------------------------------------------------------------
------------------------------------------------------------------------------
------------------------------------------------------------------------------
------------------------------------------------------------------------------
 Chorus - Play Four Times                                                     

------------------------------------------------------------------------------
------------------------------------------------------------------------------
-----------------------------------------5------------------------------------
-----------------------------------------5------------------------------------
-----------------------------------------3------------------------------------
------------------------------------------------------------------------------
 Verse - Play Four Times - End on above note and let ring                     

Comments