Default - Deny Chords & Tabs

 

Deny Chords & Tabs

Default Chords & Tabs

Version: 3 Type: Tab 0 ratings
1 star 2 stars 3 stars 4 stars 5 stars
comments

Deny Tab

6th string in drop D
This is the distortion free part at begining and in the middle(also 
during verse)

1--3--1--0--1-0---------------------
2------------------------------------
3------------------2--0--4--5--4--0--
4------------------------------------
5-------3--3---3---------------------
6-0--0-----------3---3--5--5---------


this is the distortion free strumming part(figure out how many
times to strum)
1------------
2-1--3--5--3--
3-0--0--0--0--
4-2--4--4--4--
5-3--5--5--5--
6-------------
[ Tab from: http://www.guitartabs.cc/tabs/d/default/deny_tab_ver_3.html ]
this is the first heavy part ^=hammer on
1----------------------------------
2----------------------------------
3----------------------------------
4----------------------------------
5-5--3--0--0--0--3^5--5--5--3--0--0
6-5--3--0--0--0--3^5--5--5--3--0--0

this is the second heavy part, the first and second one intermit
once in a while
1----------------------------
2----------------------------
3----------------------------
4----------------------------
5-0--0---0--0--xx--5--3--5--5
6-0--0---0--0--xx--5--3--5--5

these are the only riffs...just figure out the way they fit together
peace...Chad Guertin....email me at yoursodead@hotmail.com
Comments