Default - Deny Chords & Tabs

 

Deny Chords & Tabs

Default Chords & Tabs

Version: 2 Type: Tab 0 ratings
1 star 2 stars 3 stars 4 stars 5 stars
comments

Deny Tab

   
Artist:  Default
Title:   Deny
Album:  The Fallout
Tabbed By: Trent Adams 
Tuning: Drop D (DADGBe)


Intro and outro
    D       C             F         G   
E---3---1-----0--1-0--------------------------
B---------------------------------------------
G----------------------------2--0----4---5-4--
D---------------------------------------------
A-----------3--3-----3------------------------     
D-0--0--------------------3---3----5--5------5
[ Tab from: http://www.guitartabs.cc/tabs/d/default/deny_tab_ver_2.html ]
Verses
   D         F        C            C
E---3--1-----------------0--1-0------0--1-0---
B---------------------------------------------
G-------------2--0----------------------------
D---------------------------------------------
A----------------------3--3----3---3--3------3
D-0--0-----3--3-------------------------------

Watch the CD for the Stumming

E-----------------------------------------
B-----------------------------------------
G-5---7---5---7---5---7---5--5--5--5--5--5
D-5---7---5---7---5---7---5--5--5--5--5--5
A-3---5---3---5---3---5---3--3--3--3--3--3
D-----------------------------------------

E---------------------------------
B---------------------------------
G----------5---------------------5
D-5-3-0--5-3-0------5-3-0--5-3-0--
A-5-3-0--3-3-0------5-3-0--3-3-0--
D-5-3-0-----3-0------5-3-0----3-0-

E------------------------------------------------------
B------------------------------------------------------
G-------------------12-10----------------------12-10---
D-0-0----0-0------0-12-10-10~-0-0----0-0-----0-12-10-10
A-0-0----0-0------0-10-8--10~-0-0----0-0-----0-10--8-10
D-0-0----0-0------0-------10~-0-0----0-0-----0-------10

Comments